PrimaNota.ru - самый крупный в мире бесплатный архив песенных текстов, аккордов, табулатур и нот


Chris Walla - Geometry And C - таба, видео

Регистрация Запомнить меня
Войти через:  Facebook Google Twitter Vk Yandex Mail.ru

Chris Walla - Geometry And C - таба, видео

Печатать
Просмотров: 103
Geometry &c
Chris Walla
Field Manual

Standard Tuning

Chords (some names may be wrong):
this song has LOTS OF CHORDS

A5      xx79Tx
A5*     x079Tx
Amaj9   x0999x
A5maj7  576xxx
Asus2   x099Tx
A*      5776xx
Asus4   5777xx
A       x02220
Asus2*  x02200
B5      x2440x
B5*     799xxx
D*      x5777x
Dsus2/A x00320
D5      x577xx
D6      x5770x
E       022100
E5      022xxx
E5*     x799xx
E*      x7999x
Esus4   x799Tx
E/B     7x999x
Esus4/B 7x99Tx

Key:
T - 10
~ - Sustain

Intro:

ALL DOWN-STRUMS.

  A5                      A5*
--------------------------------------------------|
--T--T--T--T--T--T--T--T--T--T--T--T--T--T--T--T--|
--9--9--9--9--9--9--9--9--9--9--9--9--9--9--9--9--|
--7--7--7--7--7--7--7--7--7--7--7--7--7--7--7--7--|
--------------------------0--0--0--0--0--0--0--0--|
--------------------------------------------------|
  It used to bother me,

  Amaj9    Asus2    Amaj9 E*       Esus4    E*
--------------------------------------------------|
--9--9--9--T--T--T--9--9--9--9--9--T--T--T--9--9--|
--9--9--9--9--9--9--9--9--9--9--9--9--9--9--9--9--|
--9--9--9--9--9--9--9--9--9--9--9--9--9--9--9--9--|
--0--0--0--0--0--0--0--0--7--7--7--7--7--7--7--7--|
--------------------------------------------------|
  All the shapes I can't describe.

  E/B      Esus4/B  E/B   D*
--------------------------------------------------|
--9--9--9--T--T--T--9--9--7--7--7--7--7--7--7--7--|
--9--9--9--9--9--9--9--9--7--7--7--7--7--7--7--7--|
--9--9--9--9--9--9--9--9--7--7--7--7--7--7--7--7--|
--------------------------5--5--5--5--5--5--5--5--|
--7--7--7--7--7--7--7--7--------------------------|
  How we all fit together like wordless versing

  F#5          F#/E       A*       Asus4    A*
--------------------------------------------------|
--------------------------------------------------|
--------------------------6--6--6--7--7--7--6--6--|
--4--4--4--4--4--4--4--4--7--7--7--x--x--x--7--7--|
--4--4--4--4--4--4--4--4--7--7--7--7--7--7--7--7--|
--2--2--2--2--2--0--2--0--5--5--5--5--5--5--5--5--|
--------------------------------------------------| 
And da-dee-dum-dum, da-dee-dum-dum, da-dee-dum

  Dsus2/A                 A
--0--0--0--0--0--0--0--0--0--0--0--0--0--0--0--0--|
--3--3--3--3--3--3--3--3--2--2--2--2--2--2--2--2--|
--2--2--2--2--2--2--2--2--2--2--2--2--2--2--2--2--|
--0--0--0--0--0--0--0--0--2--2--2--2--2--2--2--2--|
--0--0--0--0--0--0--0--0--0--0--0--0--0--0--0--0--|
--------------------------------------------------|
  I was there, I saw you searching

  Asus2*                  E
--0--0--0--0--0--0--0--0--0--0--0--0--0--0--0--0--|
--0--0--0--0--0--0--0--0--0--0--0--0--0--0--0--0--|
--2--2--2--2--2--2--2--2--1--1--1--1--1--1--1--1--|
--2--2--2--2--2--2--2--2--2--2--2--2--2--2--2--2--|
--0--0--0--0--0--0--0--0--2--2--2--2--2--2--2--2--|
--------------------------0--0--0--0--0--0--0--0--|
  The corners for a light

  B5                      D6
--------------------------------------------------|
--0--0--0--0--0--0--0--0--0--0--0--0--0--0--0--0--|
--4--4--4--4--4--4--4--4--7--7--7--7--7--7--7--7--|
--4--4--4--4--4--4--4--4--7--7--7--7--7--7--7--7--|
--2--2--2--2--2--2--2--2--5--5--5--5--5--5--5--5--|
--------------------------------------------------|
  But it's not there, it was never there.

  Asus2                   E
--0--0--0--0--0--0--0--0--0--0--0--0--0--0--0--0--|
--2--2--2--2--2--2--2--2--0--0--0--0--0--0--0--0--|
--2--2--2--2--2--2--2--2--1--1--1--1--1--1--1--1--|
--2--2--2--2--2--2--2--2--2--2--2--2--2--2--2--2--|
--0--0--0--0--0--0--0--0--2--2--2--2--2--2--2--2--|
--------------------------0--0--0--0--0--0--0--0--|
  In files and books, a void of there in your

  Dsus2/A                 A
--0~----------------------0~----------------------|
--3~----------------------2~----------------------|
--2~----------------------2~----------------------|
--0~----------------------2~----------------------|
--0~----------------------0~----------------------|
--------------------------------------------------|
  Heart fails your mind.

Pre-Verse:

--9-7------|--------|---9-7---------|
------9-10-|-9-10---|-------9-10----|
-----------|------9-|x6----------9--|
-----------|--------|---------------|
-----------|--------|---------------|
-----------|--------|---------------|

A5* A Asus2 A D* B5 D6 A E

Verse:
(Play the intro chords over the first verse
except don't play the last Dsus2/A to A but instead
hold the last E)

This is geometry, this is the life of you and I
How we fall for a second together and down we're singing
Da-dee-dum-dum, da-dee-dum-dum, da-dee-dum
It's a college, a connection, and made to find the light
It's brighter than we remember it being the last time we tried
We tried...

Pre-Chorus:
Palm mute the first 2 chords)

F#5               E5
You don't need to speak just now
A5                                A5maj7
Should keep it down, and let that ticker pound

Chorus:
(listen to song for strumming, it's got a neat pattern)

D5             A5
Let your heart keep the time.
                        E5*
Keep the time, keep the time.
    B5*     D5                A*    E5*
The loudest part is in control, whoa.
D5                          A5
Let your heart keep the time.
                        E5*
Keep the time, keep the time.
    B5*     D5                A*    E5*
The hardest part is letting go, whoa.

(start playing the intro again when he sings this line,
again, only play up until the last E)
Let your heart keep the time, yeah...

D5             A5
Let your heart keep the time.
                        E5*
Keep the time, keep the time.
    B5*     D5                A*    E5*
The loudest part is in control, whoa.
D5                          A5
Let your heart keep the time.
                        E5*
Keep the time, keep the time.
    B5*     D5                A*    E5*
The hardest part is letting go, whoa.


D5
Let your heart keep the time.


A great, fun to play song. Enjoy (:
Добавлено: 26.07.2012
Вам также может быть интересно:
Другие материалы по этой песне:
  • Аккорды и текст

Страница создана 26.07.2012
http://primanota.ru/chris-walla/geometry-and-c-chords.htm
Привет, Гость.
Предлагаем пройти революционный курс по гитаре.
Подарок от PrimaNota.Ru, забирай!