PrimaNota.ru - самый крупный в мире бесплатный архив песенных текстов, аккордов, табулатур и нот


Chris Tilton - Assassins Creed Unity - таба, видео

Регистрация Запомнить меня
Войти через:  Facebook Google Twitter Vk Yandex Mail.ru

Chris Tilton - Assassins Creed Unity - таба, видео

Печатать
Просмотров: 171
Уроки эстрадного вокала в Санкт-Петербурге
-------------------------------------------------------------------------------
          Assassin's Creed Unity Theme - Composer: Chris Tilton
-------------------------------------------------------------------------------
Tabbed by: Michal Zelený
E-mail: michalzelen02@gmail.com

Tuning: Standart (EADGBe)

FIRST PART (SLOW)
e|---------------------------------------------------------------------------|
B|---------------------------------------------------------------------------|
G|---------------------------------------------------------------------------|
D|---------------------------------------------------------------------------|
A|---------------------------------------------------------------------------|
E|0-3-5-7-|0-3-5-3-|0-3-5-7-|12-14-15---17-----------------------------------|

BACKGROUND THEME
e|----------------------------------------------------------------------------|
B|----------------------------------------------------------------------------|
G|9-----|9-----|11----|11-----12-9-9-8-9-11-9------|11------|12-----|8-9-11-9-|
D|--9-9-|--9-9-|--9-9-|--9-13-----------------9----|--9-----|--9----|---------|
A|----------------------------------------------------------------------------|
E|----------------------------------------------------------------------------|

NEXT PART
e|---------------------------------------------------------------------------|
B|---------------------------------------------------------------------------|
G|---------------------------------------------------------------------------|
D|---------------------------------------------------------------------------|
A|7---6-7-9---10---|7---6-7-12---14---|10---9-10-9---7---|-------------------|
E|---------------------------------------------------------------------------|

e|---------------------------------------------------------------------------|
B|---------------------------------------------------------------------------|
G|9---8-9-11---12---|9---8-9-14---16---|12---11-12-11---9---|----------------|
D|---------------------------------------------------------------------------|
A|---------------------------------------------------------------------------|
E|---------------------------------------------------------------------------|

************************************

Let me know about mistakes in comments.
Добавлено: 23.06.2016
Другие материалы по этой песне:
  • Аккорды и текст

Страница создана 23.06.2016
http://primanota.ru/chris-tilton/assassins-creed-unity-chords.htm
Привет, Гость.
Предлагаем пройти революционный курс по гитаре.
Подарок от PrimaNota.Ru, забирай!