PrimaNota.ru - самый крупный в мире бесплатный архив песенных текстов, аккордов, табулатур и нот


Chris Shiflett And The Dead Peasants - Helsinki - аккорды и текст, видео

Регистрация Запомнить меня
Войти через:  Facebook Google Twitter Vk Yandex Mail.ru

Chris Shiflett And The Dead Peasants - Helsinki - аккорды и текст, видео

Печатать
Просмотров: 157
Уроки эстрадного вокала в Санкт-Петербурге
Helsinki
Chris Shiflett And The Dead Peasants
-----------------------------------------------------------------------------
          Helsinki by Chris Shiflett & the Dead Peasants
-----------------------------------------------------------------------------
Tabbed by:LesThanPaul

The first track from Chris Shiflett's side project. It's a pretty
easy song once you get the progression down. Have fun and enjoy!

UPDATE 4/13: I noticed some of the verse chords were a little
misplaced(probably formatting when I switched from word) so I
fixed that and added a solo which I recently finished

**special notes**
In the chorus parts that look like a jumbled mess of chords, it is just
the intro progression played beneath the words. I tried to line it up as
best I could, but it was a bit tricky.

Also, on most (maybe all) of the D chords in the song, he fools around with
the sus4. I'll leave that up to you whether you want to add them or not.

Chords used:

--3---2---0-----0-----0---0---3------3-------|
--3---3---1-----0-----0---1---3------3-------|
--0---2---2-----2-----0---0---2------0-------|
--0---0---2-----2-----2---2---0------2-------|
--2-------0-----0-----2---3----------3-------|
--3-------------------0----------------------|
  G   D   Am  Asus2  Em   C  Dsus4  Cadd9


intro: G    D   Am Asus2   Em  C   D Dsus4  x2

                 G                          Cadd9
I can't wait to get there, and see what was left there of you
                Am                D
pick through the pieces, I can't resist it
         G                      Cadd9
set from the get-go, knew it was over before
            Am                      D
we hit that first chord, all out of tune

   G                     Cadd9
so what did ya think was gonna happen
G                            Cadd9
you were just the ghost of a bad habit
G                   Cadd9
where is the blood, where is the passion?
G              Cadd9               D
I got lost on a bad reaction to you


            G                 Cadd9
point dirty fingers, it's everybody's fault when
        Am               D
history lingers, history leaves little doubt
               G              Cadd9
but gives me a treason, but I gave you the truth
           Am             D
you gave me reasons, a pitiful excuse

   G                     Cadd9
so what did ya think was gonna happen
G                            Cadd9
you were just the ghost of a bad habit
G                   Cadd9
where is the blood, where is the passion?
G              Cadd9               D
I got lost on a bad reaction to you


          G  D  Am
oh that's it
      Asus2         Em   C   D Dsus4
do you remember the reasons?
               G     D   Am
where's the passion?
Asus2         Em   C  D Dsus4
where is the fire?


[solo chords]
Intro x2
Then G  Cadd9  D

Solo: (may not be perfect, but pretty dang close)
e|--------------------------------------------------------------------------|
B|------0-----0---0------13-12-----10-12-10---------------12-10----10-------|
G|--12----11----9---7-----------12----------12----12-11-9-------12----------|
D|--------------------------------------------------------------------------|
A|--------------------------------------------------------------------------|
E|--------------------------------------------------------------------------|
      
e|--------------------------------------------------------------------------|
B|--10---10-12-10-----------------------[13-12-13-12-10]--------------------|
G|----------------12-9-12----/7-5\4--7------------------/7-5-9--------------|
D|--------------------------------------------------------------------------|
A|--------------------------------------------------------------------------|
E|--------------------------------------------------------------------------|
   *Fast!*
e|-----------------------------------------------------3/5-5/7-7/8-8/10-----|
B|--------------------------------------------------------------------------|
G|--7-9-7-5-5-7-5-4-4-5-4---------------------------------------------------|
D|------------------------7-5-7-5-4-----------------------------------------|
A|------------------------------------5--7-5h7------------------------------|
E|---------------------------------------------8-7-5------------------------|


G                                           Cadd9
you don't have to live like this, you don't have to live like this
G                                           Cadd9
you don't have to live like this, you don't have to live like this
G                                           Cadd9
you don't have to live like this, you don't have to live like this
G                                           Cadd9
you don't have to live like this, you don't have to live like this


              G                           Cadd9
can't wait to get there, and see what was left there of you
                Am                D
pick through the pieces, I can't resist it


          G  D  Am
oh that's it
      Asus2         Em   C   D Dsus4
do you remember the reasons?
               G     D   Am
where's the passion?
Asus2         Em   C  D Dsus4
where is the fire?

            G  D  Am
a bad reaction
      Asus2         Em   C   D Dsus4
do you remember the reasons?
               G     D   Am
where's the passion?
Asus2         Em   C  D Dsus4
where is the fire?

          G  D  Am
oh that's it
      Asus2         Em   C   D Dsus4
do you remember the reasons?
          G     D   Am
oh that's it
Asus2         Em   C  D Dsus4
where is the fire?


Link to band site: http://chrisshiflettmusic.com/
Добавлено: 30.05.2012
Другие материалы по этой песне:
  • Аккорды и текст

Страница создана 30.05.2012
http://primanota.ru/chris-shiflett-and-the-dead-peasants/helsinki-chords.htm
Привет, Гость.
Предлагаем пройти революционный курс по гитаре.
Подарок от PrimaNota.Ru, забирай!