PrimaNota.ru - самый крупный в мире бесплатный архив песенных текстов, аккордов, табулатур и нот


Chris Ross - You Oughta Be - аккорды и текст, видео

Регистрация Запомнить меня
Войти через:  Facebook Google Twitter Vk Yandex Mail.ru

Chris Ross - You Oughta Be - аккорды и текст, видео

Печатать
Просмотров: 97
You Oughta Be
Chris Ross
The opening track to Chris Ross' sophomore album "Halfway to Wonderland", put a
capo on the 5th fret for this one! :D

Chris plays his F's like this:

e---
B-1-
G-2-
D-3-
A-3-
E---

Intro:
e-0---0-0-0---0-0-0--0---0-0-0---0-0-0-|
B-0h1-1-1-1p0-0-0-0--0h1-1-1-1p0-0-0-0-|
G-2---2-2-2---2-2-2--2---2-2-2---2-2-2-|
D-2---2-2-2---2-2-2--2---2-2-2---2-2-2-|
A-0---0-0-0---0-0-0--0---0-0-0---0-0-0-|
E--------------------------------------|

e--------------------------------------------|
B-0h1-1-1-1p0-0-0-0--0h1-1-1-1p0-0-0-0---0-0-|
G-2---2-2-2---2-2-2--2---2-2-2---2-2-2p0-0-0-|
D-3---3-3-3---3-3-3--3---3-3-3---3-3-3---0-0-|
A-3---3-3-3---3-3-3--3---3-3-3---3-3-3-------|
E--------------------------------------------|

e-0---0-0-0---0-0-0--0---0-0-0---0-0-0-|
B-0h1-1-1-1p0-0-0-0--0h1-1-1-1p0-0-0-0-|
G-2---2-2-2---2-2-2--2---2-2-2---2-2-2-|
D-2---2-2-2---2-2-2--2---2-2-2---2-2-2-|
A-0---0-0-0---0-0-0--0---0-0-0---0-0-0-|
E--------------------------------------|

e--------------------------------------------|
B-0h1-1-1-1p0-0-0-0--0h1-1-1-1p0-0-0-0---0-0-|
G-2---2-2-2---2-2-2--2---2-2-2---2-2-2p0-0-0-|
D-3---3-3-3---3-3-3--3---3-3-3---3-3-3---0-0-|
A-3---3-3-3---3-3-3--3---3-3-3---3-3-3-------|
E--------------------------------------------|

(For the verse, play the intro but very slightly palm-muted
Am                                                   F
In the mornin' maybe we can lay together like white lines
On the turnpike
Am                                                F
In the mornin' maybe we'll see it better there's truth
In the sunrise
     Am
But tonight you're with me and everything is
        F
How it oughta be
Am                                                         F
In the light there's a space in the place right where you oughta be

            Am                            Em
Where you oughta be is here but where you gotta go is home now
        F
You're thinkin' you might never get to sleep on your own
       Am                          Em
You'd give it all away for just a little bit more time
           F
Where you oughta be
What you oughta be is mine

e-0---0-0-0---0-0-0--0---0-0-0---0-0-0-|
B-0h1-1-1-1p0-0-0-0--0h1-1-1-1p0-0-0-0-|
G-2---2-2-2---2-2-2--2---2-2-2---2-2-2-|
D-2---2-2-2---2-2-2--2---2-2-2---2-2-2-|
A-0---0-0-0---0-0-0--0---0-0-0---0-0-0-|
E--------------------------------------|

e--------------------------------------------|
B-0h1-1-1-1p0-0-0-0--0h1-1-1-1p0-0-0-0---0-0-|
G-2---2-2-2---2-2-2--2---2-2-2---2-2-2p0-0-0-|
D-3---3-3-3---3-3-3--3---3-3-3---3-3-3---0-0-|
A-3---3-3-3---3-3-3--3---3-3-3---3-3-3-------|
E--------------------------------------------|

In the mornin' maybe we can run for cover like two crows
On the roadside
Settle down and make a life up in the willows live it slow
Under a blue sky
But tonight you're with me and everything is
How it oughta be
In the light there's a space in the place right where you oughta be

Where you oughta be is here but where you gotta go is home now
You're thinkin' you might never get to sleep on your own
You'd give it all away for just a little bit more time
Where you oughta be
                      Am
What you oughta be is mine

                       F
Where you oughta be is in my arms
                     Am
We're runnin' outta time
                     F
We're runnin' outta moon and stars
                       Am
What you oughta be is free
                       F
What you oughta do is lay back down
                   Am
You oughta be with me
                   F
You oughta be with me

Where you oughta be is here but where you gotta go is home now
You're thinkin' you might never get to sleep on your own
You'd give it all away for just a little bit more time
Where you oughta be
What you oughta be is mine
What you oughta be is mine

e-0---0-0-0---0-0-0--0---0-0-0---0-0-0-|
B-0h1-1-1-1p0-0-0-0--0h1-1-1-1p0-0-0-0-|
G-2---2-2-2---2-2-2--2---2-2-2---2-2-2-|
D-2---2-2-2---2-2-2--2---2-2-2---2-2-2-|
A-0---0-0-0---0-0-0--0---0-0-0---0-0-0-|
E--------------------------------------|

e--------------------------------------------|
B-0h1-1-1-1p0-0-0-0--0h1-1-1-1p0-0-0-0---0-0-|
G-2---2-2-2---2-2-2--2---2-2-2---2-2-2p0-0-0-|
D-3---3-3-3---3-3-3--3---3-3-3---3-3-3---0-0-|
A-3---3-3-3---3-3-3--3---3-3-3---3-3-3-------|
E--------------------------------------------|

In the mornin' maybe we can lay together like white lines
On the turnpike
Добавлено: 07.07.2013
Другие материалы по этой песне:
  • Аккорды и текст

Страница создана 07.07.2013
http://primanota.ru/chris-ross/you-oughta-be-chords.htm
Привет, Гость.
Предлагаем пройти революционный курс по гитаре.
Подарок от PrimaNota.Ru, забирай!