PrimaNota.ru - самый крупный в мире бесплатный архив песенных текстов, аккордов, табулатур и нот


Chris Ross - My Time - таба, видео

Регистрация Запомнить меня
Войти через:  Facebook Google Twitter Vk Yandex Mail.ru

Chris Ross - My Time - таба, видео

Печатать
Просмотров: 82
Easy(ish) Chris Ross tune with some great lyrics.  The same riff is played
pretty much throughout the entire song, you'll need to listen to the song to get the 
timing right.  I've updated it, the chords from the riff are over the lyrics they're played 
on!  :D  Good luck!

Capo 3rd fret!

e-------------------------------------------------------------------|
B-------------------------------------------------------------------|
G-------------------------------------------------------------------|
D---4-4-4-4-4-4-4---2-2-2-2-2-2-2---0-0-0-0-0-0-0-0-0-0-0-0-0-0-0---|
A---5-5-5-5-5-5-5---4-4-4-4-4-4-4---2-2-2-2-2-2-2-2-2-2-2-2-2-2-2---|
E-------------------------------------------------------------------|

Verse: (Same as Intro, I just put the chords over the words they're played on)
              D-4-               D-2-              D-0-|
              A-5-               A-4-              A-2-|
Here she comes slow to the pillow faded like a memory
             D-4-                    D-2-           D-0-|
             A-5-                    A-4-           A-2-|
All flesh and blood her fingers cross flood of honesty
               D-4-              D-2-|
               A-5-              A-4-|
I tell her don't go I tell her to stay
           D-0-
           A-2-
Tell her it burns too hot to live this way
                 D-4-                   D-2-|
                 A-5-                   A-4-|
She says it ain't love I say well that's fine
             D-0-
             A-2-
But when is it my time?
         G----------------------------------------------------------------|
         D--4-4-4-4-4-4-4---2-2-2-2-2-2-2---0-0-0-0-0-0-0-0-0-0-0-0-0-0-0-|
         A--5-5-5-5-5-5-5---4-4-4-4-4-4-4---2-2-2-2-2-2-2-2-2-2-2-2-2-2-2-|
         E----------------------------------------------------------------|
When is it my time?
         G----------------------------------------------------------------|
         D--4-4-4-4-4-4-4---2-2-2-2-2-2-2---0-0-0-0-0-0-0-0-0-0-0-0-0-0-0-|
         A--5-5-5-5-5-5-5---4-4-4-4-4-4-4---2-2-2-2-2-2-2-2-2-2-2-2-2-2-2-|
         E----------------------------------------------------------------|
When is it my time?



            D-4-               D-2-                  D-0-|
            A-5-               A-4-                  A-2-|
Yeah she got eyes like tomorrow always just ahead of me
                    D-4-                  D-2-             D-0-|
                    A-5-                  A-4-             A-2-|
She sees through the dust the lies between trust and jealousy
           D-4-            D-2-|
           A-5-            A-4-|
A moment of peace a genuine smile

         D-0-
         A-2-
Tell her I hope you're gonna stay for a while
                D-4-                   D-2-|
                A-5-                   A-4-|
She says it ain't love I say well that's fine
              D-0-
              A-2-
But when is it my time
           D-4-
           A-5-
When is it my time?
           D-0-
           A-2-
Seems I'm always just hangin' 'round
          D-4-
          A-5-
When is it my time?
         D-0-
         A-2-
Seems I'm always just fallin' down


                        D-4-              D-2-                 D-0-|
                        A-5-              A-4-                 A-2-|
Waitin on the sound of a love from Heaven sweeter than any taste
         D-4-                D-2-               D-0-|
         A-5-                A-4-               A-2-|
When it's cold and it's blowin' a fuckin' fireplace
     D-4-            D-2-|
     A-5-            A-4-|
Yeah storybook woman right off the page
     D-0-
     A-2-
And a word of good fortune straight from the sage
       D-4-           D-2-|
       A-5-           A-4-|
And I'm waitin' on her seems like ages
D-0-
A-2-
God it's so long gettin' impatient
    D-4-
    A-5-
For my time
         D-0-
         A-2-
Seems the charm done left this prince
          D-4-
          A-5-
When is it my time?
     D-0-
     A-2-
God I ain't wanted nothin' since


       D-4-            D-2-                   D-0-|
       A-5-            A-4-                   A-2-|
Now I'm ticking in place talking in circles again
D-4-               D-2-               D-0-|
A-5-               A-4-               A-2-|
Crawling ever after towards a happy end
    D-4-            D-2-                  D-0-|
    A-5-            A-4-                  A-2-|
I can see her leavin' right in her smilin' eyes
     D-4-            D-2-                  D-0-|
     A-5-            A-4-                  A-2-|
I can see me bleedin' right in her smilin' eyes
          D-4-          D-5-          D-0-|
          A-5-          A-7-          A-2-|
When is it my time gotta hold on hopin' hope to hold you babe
  D-4-         D-5-                D-0-|
  A-5-         A-7-                A-2-|
My time all my breath is stolen in a broken hearted way
  D-4-        D-5-           D-0-|
  A-5-        A-7-           A-2-|
My time is a burning wick and won't you stick around?
  D-4-      D-5-            D-0-|
  A-5-      A-7-            A-2-|
My time gotta go so quick and won't you stick around?
         G-----------------------------------------------------------------|
         D---4-4-4-4-4-4-4---2-2-2-2-2-2-2---0-0-0-0-0-0-0-0-0-0-0-0-0-0-0-|
         A---5-5-5-5-5-5-5---4-4-4-4-4-4-4---2-2-2-2-2-2-2-2-2-2-2-2-2-2-2-|
         E-----------------------------------------------------------------|
Till it's my time
         G-----------------------------------------------------------------|
         D---4-4-4-4-4-4-4---2-2-2-2-2-2-2---0-0-0-0-0-0-0-0-0-0-0-0-0-0-0-|
         A---5-5-5-5-5-5-5---4-4-4-4-4-4-4---2-2-2-2-2-2-2-2-2-2-2-2-2-2-2-|
         E-----------------------------------------------------------------|
Till it's my time                                  G-0-
              D-4-              D-2-               D-2-|
              A-5-              A-4-               A-2-|
Here she comes slow to the pillow faded like a memory
Добавлено: 11.06.2013
Другие материалы по этой песне:
  • Аккорды и текст

Страница создана 11.06.2013
http://primanota.ru/chris-ross/my-time-chords.htm
Привет, Гость.
Предлагаем пройти революционный курс по гитаре.
Подарок от PrimaNota.Ru, забирай!