PrimaNota.ru - самый крупный в мире бесплатный архив песенных текстов, аккордов, табулатур и нот


Chris Ross - Maybe Its Me - таба, видео

Регистрация Запомнить меня
Войти через:  Facebook Google Twitter Vk Yandex Mail.ru

Chris Ross - Maybe Its Me - таба, видео

Печатать
Просмотров: 108
This one took me a couple hours to tab, this is the 2nd track on Chris Ross' sophomore
album "Halfway to Wonderland" Tune yer guitar to Drop-D and put a capo on the 4th fret!
I highly recommend watching the Youtube guitar tutorial (taught by Chris Ross himself) 
and listening to the song to get the timing down!  Good luck with this one! :D

Intro:
e----------------------------------------------------------------------|
B----------------------------------------------------------------------|
G-------------------------------------------------------------0--------|
D-----0-2-2/4~------0-2-2/4-4\2-0~------0-2-2/4~------0-2-2/4---4\2-0--|
A---0-------------0-------------------0-------------0------------------|
D-0-------------0-------------------0-------------0--------------------|

e-----------------------------------------------------------------------|
B-----------------------------------------------------------------------|
G-------------------------------------------------------------0---------|
D-----0-2-2/4~------0-2-2/4-4\2-0~------0-2-2/4~------0-2-2/4---4\2-0---|
A---0-------------0-------------------0-------------0-------------------|
D-0-------------0-------------------0-------------0-------------------0-|

e-2--2-2-2----2--2-2-2----2--2-2-2----2--2-2-2-----------------------------------------------|
B-3--3-3-3----3--3-3-3----3--3-3-3----3--3-3-3--1-1--1-1-1--1-1----1--1-1-1--1-1--1-1-1------|
G-2--2-2-2----2--2-2-2----2--2-2-2----2--2-2-2--0-0--0-0-0--0-0----0--0-0-0--0-0--0-0-0------|
D-0--0-0-0----0--0-0-0-4--4--4-4-4-4--4--4-4-4--2-0--0-0-0--2-0----0--0-0-0--2-0--0-0-0------|
A-0--0-0-0----0--0-0-0----0--0-0-0----0--0-0-0--3-3--3-3-3--3-3--2-2--2-2-2--2-2--2-2-2------|
D-0--0-0-0-0--0--0-0-0----0--0-0-0----0--0-0-0------------------------------------------3b0--|

e-2--2-2-2----2--2-2-2----2--2-2-2----2--2-2-2-----------------------------------------------|
B-3--3-3-3----3--3-3-3----3--3-3-3----3--3-3-3--1-1--1-1-1--1-1----1--1-1-1--1-1--1-1-1------|
G-2--2-2-2----2--2-2-2----2--2-2-2----2--2-2-2--0-0--0-0-0--0-0----0--0-0-0--0-0--0-0-0------|
D-0--0-0-0----0--0-0-0-4--4--4-4-4-4--4--4-4-4--2-0--0-0-0--2-0----0--0-0-0--2-0--0-0-0------|
A-0--0-0-0----0--0-0-0----0--0-0-0----0--0-0-0--3-3--3-3-3--3-3--2-2--2-2-2--2-2--2-2-2------|
D-0--0-0-0-0--0--0-0-0----0--0-0-0----0--0-0-0------------------------------------------3b0--|


First Verse:
e-2--2-2-2----2--2-2-2----2--2-2-2----2--2-2-2-----------------------------------------------|
B-3--3-3-3----3--3-3-3----3--3-3-3----3--3-3-3--1-1--1-1-1--1-1----1--1-1-1--1-1--1-1-1------|
G-2--2-2-2----2--2-2-2----2--2-2-2----2--2-2-2--0-0--0-0-0--0-0----0--0-0-0--0-0--0-0-0------|
D-0--0-0-0----0--0-0-0-4--4--4-4-4-4--4--4-4-4--2-0--0-0-0--2-0----0--0-0-0--2-0--0-0-0------|
A-0--0-0-0----0--0-0-0----0--0-0-0----0--0-0-0--3-3--3-3-3--3-3--2-2--2-2-2--2-2--2-2-2------|
D-0--0-0-0-0--0--0-0-0----0--0-0-0----0--0-0-0------------------------------------------3b0--|
    "Our"                 "starts"              "dances"          "Martin"

e-2--2-2-2----2--2-2-2----2--2-2-2----2--2-2-2-----------------------------------------------|
B-3--3-3-3----3--3-3-3----3--3-3-3----3--3-3-3--1-1--1-1-1--1-1----1--1-1-1--1-1--1-1-1------|
G-2--2-2-2----2--2-2-2----2--2-2-2----2--2-2-2--0-0--0-0-0--0-0----0--0-0-0--0-0--0-0-0------|
D-0--0-0-0----0--0-0-0-4--4--4-4-4-4--4--4-4-4--2-0--0-0-0--2-0----0--0-0-0--2-0--0-0-0------|
A-0--0-0-0----0--0-0-0----0--0-0-0----0--0-0-0--3-3--3-3-3--3-3--2-2--2-2-2--2-2--2-2-2------|
D-0--0-0-0-0--0--0-0-0----0--0-0-0----0--0-0-0------------------------------------------3b0--|
    "Our"                 "Born"                "Far"             "Heavenly"

e-2--2-2-2----2--2-2-2----2--2-2-2----2--2-2-2-----------------------------------------------|
B-3--3-3-3----3--3-3-3----3--3-3-3----3--3-3-3--1-1--1-1-1--1-1----1--1-1-1--1-1--1-1-1------|
G-2--2-2-2----2--2-2-2----2--2-2-2----2--2-2-2--0-0--0-0-0--0-0----0--0-0-0--0-0--0-0-0------|
D-0--0-0-0----0--0-0-0-4--4--4-4-4-4--4--4-4-4--2-0--0-0-0--2-0----0--0-0-0--2-0--0-0-0------|
A-0--0-0-0----0--0-0-0----0--0-0-0----0--0-0-0--3-3--3-3-3--3-3--2-2--2-2-2--2-2--2-2-2------|
D-0--0-0-0-0--0--0-0-0----0--0-0-0----0--0-0-0------------------------------------------3b0--|

e-2--2-2-2----2--2-2-2----2--2-2-2----2--2-2-2-----------------------------------------------|
B-3--3-3-3----3--3-3-3----3--3-3-3----3--3-3-3--1-1--1-1-1--1-1----1--1-1-1--1-1--1-1-1------|
G-2--2-2-2----2--2-2-2----2--2-2-2----2--2-2-2--0-0--0-0-0--0-0----0--0-0-0--0-0--0-0-0------|
D-0--0-0-0----0--0-0-0-4--4--4-4-4-4--4--4-4-4--2-0--0-0-0--2-0----0--0-0-0--2-0--0-0-0------|
A-0--0-0-0----0--0-0-0----0--0-0-0----0--0-0-0--3-3--3-3-3--3-3--2-2--2-2-2--2-2--2-2-2------|
D-0--0-0-0-0--0--0-0-0----0--0-0-0----0--0-0-0------------------------------------------3b0--|
    "My"                  "signed"              "one"              "Cupid"

e-2--2-2-2----2--2-2-2----2--2-2-2----2--2-2-2-----------------------------------------------|
B-3--3-3-3----3--3-3-3----3--3-3-3----3--3-3-3--1-1--1-1-1--1-1----1--1-1-1--1-1--1-1-1------|
G-2--2-2-2----2--2-2-2----2--2-2-2----2--2-2-2--0-0--0-0-0--0-0----0--0-0-0--0-0--0-0-0------|
D-0--0-0-0----0--0-0-0-4--4--4-4-4-4--4--4-4-4--2-0--0-0-0--2-0----0--0-0-0--2-0--0-0-0------|
A-0--0-0-0----0--0-0-0----0--0-0-0----0--0-0-0--3-3--3-3-3--3-3--2-2--2-2-2--2-2--2-2-2------|
D-0--0-0-0-0--0--0-0-0----0--0-0-0----0--0-0-0------------------------------------------3b0--|
    "My"                   "burnt"               "up"               "out"

Our love it starts in the middle and dances in the air like a Martin and fiddle
Our song is born in desire far out of reach of that heavenly choir sing it now
My way is signed and delivered one more prey of the Cupid and quiver
My eyes are burnt from the rubble up to the sky out of the struggle sing it now

Chorus:
e-2--2-2-2-2--2--2-2-2----2--2-2-2----2--2-2-2-|
B-3--3-3-3-3--3--3-3-3----3--3-3-3----3--3-3-3-|
G-2--2-2-2-2--2--2-2-2----2--2-2-2----2--2-2-2-|
D-0--0-0-0-0--0--0-0-0-4--4--4-4-4-5--5--5-5-5-|
A-0--0-0-0-0--0--0-0-0----0--0-0-0----0--0-0-0-|
D-0--0-0-0-0--0--0-0-0----0--0-0-0----0--0-0-0-|

e------------------------     e------------------------     e------------------------|
B------------------------     B------------------------     B------------------------|
G---0--0-0-0----5--5-5-5- x2  G---0--0-0-0----0--0-0-0- x2  G---0--0-0-0----0--0-0-0-| x2
D---5--5-5-5----5--5-5-5-     D---5--5-5-5----5--5-5-5-     D---5--5-5-5----5--5-5-5-|
A---0--0-0-0----0--0-0-0-     A---0--0-0-0----0--0-0-0-     A---0--0-0-0----0--0-0-0-|
D-2-2--2-2-2--2-2--2-2-2-     D-4-4--4-4-4--4-4--4-4-4-     D-5-5--5-5-5--5-5--5-5-5-|


e-2--2-2-2-2--2--2-2-2----2--2-2-2----2--2-2-2-|
B-3--3-3-3-3--3--3-3-3----3--3-3-3----3--3-3-3-|
G-2--2-2-2-2--2--2-2-2----2--2-2-2----2--2-2-2-|
D-0--0-0-0-0--0--0-0-0-4--4--4-4-4-5--5--5-5-5-|
A-0--0-0-0-0--0--0-0-0----0--0-0-0----0--0-0-0-|
D-0--0-0-0-0--0--0-0-0----0--0-0-0----0--0-0-0-|
      "This"              "you"       "her"
e------------------------     e------------------------     e------------------------|
B------------------------     B------------------------     B------------------------|
G---0--0-0-0----5--5-5-5- x2  G---0--0-0-0----0--0-0-0- x2  G---0--0-0-0----0--0-0-0-| x2
D---5--5-5-5----5--5-5-5-     D---5--5-5-5----5--5-5-5-     D---5--5-5-5----5--5-5-5-|
A---0--0-0-0----0--0-0-0-     A---0--0-0-0----0--0-0-0-     A---0--0-0-0----0--0-0-0-|
D-2-2--2-2-2--2-2--2-2-2-     D-4-4--4-4-4--4-4--4-4-4-     D-5-5--5-5-5--5-5--5-5-5-|
   "Swimmin'"                     "Maybe"                       "Maybe"

e-2--2-2-2-2--2--2-2-2----2--2-2-2----2--2-2-2-|
B-3--3-3-3-3--3--3-3-3----3--3-3-3----3--3-3-3-|
G-2--2-2-2-2--2--2-2-2----2--2-2-2----2--2-2-2-|
D-0--0-0-0-0--0--0-0-0-4--4--4-4-4-5--5--5-5-5-|
A-0--0-0-0-0--0--0-0-0----0--0-0-0----0--0-0-0-|
D-0--0-0-0-0--0--0-0-0----0--0-0-0----0--0-0-0-|
      "You"               "wavered"   "heavy"
e------------------------     e------------------------     e------------------------|
B------------------------     B------------------------     B------------------------|
G---0--0-0-0----5--5-5-5- x2  G---0--0-0-0----0--0-0-0- x2  G---0--0-0-0----0--0-0-0-| x2
D---5--5-5-5----5--5-5-5-     D---5--5-5-5----5--5-5-5-     D---5--5-5-5----5--5-5-5-|
A---0--0-0-0----0--0-0-0-     A---0--0-0-0----0--0-0-0-     A---0--0-0-0----0--0-0-0-|
D-2-2--2-2-2--2-2--2-2-2-     D-4-4--4-4-4--4-4--4-4-4-     D-5-5--5-5-5--5-5--5-5-5-|
   "Reason"                      "Maybe"                        "Maybe"

Maybe this is how it's gotta be, You with him and her with me
Swimmin' in the coulda-beens, Drownin' in the shoulda-seas
Maybe it's my words that float, Away as quickly as their wrote
Maybe it's you, Maybe it's me
Maybe it's you who's got the bitter heart, Wavered faith and heavy guard
Reason to believe in things, Cold forever wedding rings
Maybe it's the plight of man to never just quite understand
Maybe it's you, Maybe it's me...

e-2--2-2-2----2--2-2-2----2--2-2-2----2--2-2-2-----------------------------------------------|
B-3--3-3-3----3--3-3-3----3--3-3-3----3--3-3-3--1-1--1-1-1--1-1----1--1-1-1--1-1--1-1-1------|
G-2--2-2-2----2--2-2-2----2--2-2-2----2--2-2-2--0-0--0-0-0--0-0----0--0-0-0--0-0--0-0-0------|
D-0--0-0-0----0--0-0-0-4--4--4-4-4-4--4--4-4-4--2-0--0-0-0--2-0----0--0-0-0--2-0--0-0-0------|
A-0--0-0-0----0--0-0-0----0--0-0-0----0--0-0-0--3-3--3-3-3--3-3--2-2--2-2-2--2-2--2-2-2------|
D-0--0-0-0-0--0--0-0-0----0--0-0-0----0--0-0-0------------------------------------------3b0--|

e-2--2-2-2----2--2-2-2----2--2-2-2----2--2-2-2-----------------------------------------------|
B-3--3-3-3----3--3-3-3----3--3-3-3----3--3-3-3--1-1--1-1-1--1-1----1--1-1-1--1-1--1-1-1------|
G-2--2-2-2----2--2-2-2----2--2-2-2----2--2-2-2--0-0--0-0-0--0-0----0--0-0-0--0-0--0-0-0------|
D-0--0-0-0----0--0-0-0-4--4--4-4-4-4--4--4-4-4--2-0--0-0-0--2-0----0--0-0-0--2-0--0-0-0------|
A-0--0-0-0----0--0-0-0----0--0-0-0----0--0-0-0--3-3--3-3-3--3-3--2-2--2-2-2--2-2--2-2-2------|
D-0--0-0-0-0--0--0-0-0----0--0-0-0----0--0-0-0------------------------------------------3b0--|


Second Verse:
e-2--2-2-2----2--2-2-2----2--2-2-2----2--2-2-2-----------------------------------------------|
B-3--3-3-3----3--3-3-3----3--3-3-3----3--3-3-3--1-1--1-1-1--1-1----1--1-1-1--1-1--1-1-1------|
G-2--2-2-2----2--2-2-2----2--2-2-2----2--2-2-2--0-0--0-0-0--0-0----0--0-0-0--0-0--0-0-0------|
D-0--0-0-0----0--0-0-0-4--4--4-4-4-4--4--4-4-4--2-0--0-0-0--2-0----0--0-0-0--2-0--0-0-0------|
A-0--0-0-0----0--0-0-0----0--0-0-0----0--0-0-0--3-3--3-3-3--3-3--2-2--2-2-2--2-2--2-2-2------|
D-0--0-0-0-0--0--0-0-0----0--0-0-0----0--0-0-0------------------------------------------3b0--|
    "Our"                  "ends"               "scrawled"         "hammer"

e-2--2-2-2----2--2-2-2----2--2-2-2----2--2-2-2-----------------------------------------------|
B-3--3-3-3----3--3-3-3----3--3-3-3----3--3-3-3--1-1--1-1-1--1-1----1--1-1-1--1-1--1-1-1------|
G-2--2-2-2----2--2-2-2----2--2-2-2----2--2-2-2--0-0--0-0-0--0-0----0--0-0-0--0-0--0-0-0------|
D-0--0-0-0----0--0-0-0-4--4--4-4-4-4--4--4-4-4--2-0--0-0-0--2-0----0--0-0-0--2-0--0-0-0------|
A-0--0-0-0----0--0-0-0----0--0-0-0----0--0-0-0--3-3--3-3-3--3-3--2-2--2-2-2--2-2--2-2-2------|
D-0--0-0-0-0--0--0-0-0----0--0-0-0----0--0-0-0------------------------------------------3b0--|
    "Our"                  "crossed"             "over"             "under"

Our love it ends in a riddle, Scrawled on the door with a hammer and chisel
Our stars are crossed like the lovers, Over our heads under the covers sing it now


Chorus:
e-2--2-2-2-2--2--2-2-2----2--2-2-2----2--2-2-2-|
B-3--3-3-3-3--3--3-3-3----3--3-3-3----3--3-3-3-|
G-2--2-2-2-2--2--2-2-2----2--2-2-2----2--2-2-2-|
D-0--0-0-0-0--0--0-0-0-4--4--4-4-4-5--5--5-5-5-|
A-0--0-0-0-0--0--0-0-0----0--0-0-0----0--0-0-0-|
D-0--0-0-0-0--0--0-0-0----0--0-0-0----0--0-0-0-|

e------------------------     e------------------------     e------------------------|
B------------------------     B------------------------     B------------------------|
G---0--0-0-0----5--5-5-5- x2  G---0--0-0-0----0--0-0-0- x2  G---0--0-0-0----0--0-0-0-| x2
D---5--5-5-5----5--5-5-5-     D---5--5-5-5----5--5-5-5-     D---5--5-5-5----5--5-5-5-|
A---0--0-0-0----0--0-0-0-     A---0--0-0-0----0--0-0-0-     A---0--0-0-0----0--0-0-0-|
D-2-2--2-2-2--2-2--2-2-2-     D-4-4--4-4-4--4-4--4-4-4-     D-5-5--5-5-5--5-5--5-5-5-|


e-2--2-2-2-2--2--2-2-2----2--2-2-2----2--2-2-2-|
B-3--3-3-3-3--3--3-3-3----3--3-3-3----3--3-3-3-|
G-2--2-2-2-2--2--2-2-2----2--2-2-2----2--2-2-2-|
D-0--0-0-0-0--0--0-0-0-4--4--4-4-4-5--5--5-5-5-|
A-0--0-0-0-0--0--0-0-0----0--0-0-0----0--0-0-0-|
D-0--0-0-0-0--0--0-0-0----0--0-0-0----0--0-0-0-|
      "This"              "you"       "her"
e------------------------     e------------------------     e------------------------|
B------------------------     B------------------------     B------------------------|
G---0--0-0-0----5--5-5-5- x2  G---0--0-0-0----0--0-0-0- x2  G---0--0-0-0----0--0-0-0-| x2
D---5--5-5-5----5--5-5-5-     D---5--5-5-5----5--5-5-5-     D---5--5-5-5----5--5-5-5-|
A---0--0-0-0----0--0-0-0-     A---0--0-0-0----0--0-0-0-     A---0--0-0-0----0--0-0-0-|
D-2-2--2-2-2--2-2--2-2-2-     D-4-4--4-4-4--4-4--4-4-4-     D-5-5--5-5-5--5-5--5-5-5-|
   "Swimmin'"                     "Maybe"                       "Maybe"

e-2--2-2-2-2--2--2-2-2----2--2-2-2----2--2-2-2-|
B-3--3-3-3-3--3--3-3-3----3--3-3-3----3--3-3-3-|
G-2--2-2-2-2--2--2-2-2----2--2-2-2----2--2-2-2-|
D-0--0-0-0-0--0--0-0-0-4--4--4-4-4-5--5--5-5-5-|
A-0--0-0-0-0--0--0-0-0----0--0-0-0----0--0-0-0-|
D-0--0-0-0-0--0--0-0-0----0--0-0-0----0--0-0-0-|
      "You"               "wavered"   "heavy"
e------------------------     e------------------------     e------------------------|
B------------------------     B------------------------     B------------------------|
G---0--0-0-0----5--5-5-5- x2  G---0--0-0-0----0--0-0-0- x2  G---0--0-0-0----0--0-0-0-| x2
D---5--5-5-5----5--5-5-5-     D---5--5-5-5----5--5-5-5-     D---5--5-5-5----5--5-5-5-|
A---0--0-0-0----0--0-0-0-     A---0--0-0-0----0--0-0-0-     A---0--0-0-0----0--0-0-0-|
D-2-2--2-2-2--2-2--2-2-2-     D-4-4--4-4-4--4-4--4-4-4-     D-5-5--5-5-5--5-5--5-5-5-|
   "Reason"                      "Maybe"                        "Maybe"

Maybe this is how it's gotta be, You with him and her with me
Swimmin' in the coulda-beens, Drownin' in the shoulda-seas
Maybe it's my words that float, Away as quickly as their wrote
Maybe it's you, Maybe it's me
Maybe it's you who's got the bitter heart, Wavered faith and heavy guard
Reason to believe in things, Cold forever wedding rings
Maybe it's the plight of man to never just quite understand
Maybe it's you, Maybe it's me...


Bridge:
e-2--2-2-2-2--2--2-2-2----2--2-2-2----2--2-2-2-|
B-3--3-3-3-3--3--3-3-3----3--3-3-3----3--3-3-3-|
G-2--2-2-2-2--2--2-2-2----2--2-2-2----2--2-2-2-|
D-0--0-0-0-0--0--0-0-0-4--4--4-4-4-5--5--5-5-5-|
A-0--0-0-0-0--0--0-0-0----0--0-0-0----0--0-0-0-|
D-0--0-0-0-0--0--0-0-0----0--0-0-0----0--0-0-0-|
                                    "Maybe"
e------------------------     e------------------------     e------------------------|
B------------------------     B------------------------     B------------------------|
G---0--0-0-0----5--5-5-5- x2  G---0--0-0-0----0--0-0-0- x2  G---0--0-0-0----0--0-0-0-| x2
D---5--5-5-5----5--5-5-5-     D---5--5-5-5----5--5-5-5-     D---5--5-5-5----5--5-5-5-|
A---0--0-0-0----0--0-0-0-     A---0--0-0-0----0--0-0-0-     A---0--0-0-0----0--0-0-0-|
D-2-2--2-2-2--2-2--2-2-2-     D-4-4--4-4-4--4-4--4-4-4-     D-5-5--5-5-5--5-5--5-5-5-|
"Me"                               "Me"                          "Me"

Maybe it's me
Maybe it's me
Maybe it's me

e-2--2-2-2-2--2--2-2-2----2--2-2-2----2--2-2-2-|
B-3--3-3-3-3--3--3-3-3----3--3-3-3----3--3-3-3-|
G-2--2-2-2-2--2--2-2-2----2--2-2-2----2--2-2-2-|
D-0--0-0-0-0--0--0-0-0-4--4--4-4-4-5--5--5-5-5-|
A-0--0-0-0-0--0--0-0-0----0--0-0-0----0--0-0-0-|
D-0--0-0-0-0--0--0-0-0----0--0-0-0----0--0-0-0-|
     "Maybe"

e------------------------     e------------------------     e------------------------|
B------------------------     B------------------------     B------------------------|
G---0--0-0-0----5--5-5-5- x2  G---0--0-0-0----0--0-0-0- x2  G---0--0-0-0----0--0-0-0-| x2
D---5--5-5-5----5--5-5-5-     D---5--5-5-5----5--5-5-5-     D---5--5-5-5----5--5-5-5-|
A---0--0-0-0----0--0-0-0-     A---0--0-0-0----0--0-0-0-     A---0--0-0-0----0--0-0-0-|
D-2-2--2-2-2--2-2--2-2-2-     D-4-4--4-4-4--4-4--4-4-4-     D-5-5--5-5-5--5-5--5-5-5-|
   "Never"                           "Maybe"                       "Maybe"

Maybe it's the plight of man
To never just quite understand
Maybe it's you
Maybe it's you
Maybe it's you

Outro:
e----------------------------------------------------------------------|
B----------------------------------------------------------------------|
G-------------------------------------------------------------0--------|
D-----0-2-2/4~------0-2-2/4-4\2-0~------0-2-2/4~------0-2-2/4---4\2-0--|
A---0-------------0-------------------0-------------0------------------|
D-0-------------0-------------------0-------------0--------------------|
"Me..."

Maybe it's me...
Добавлено: 15.08.2013
Другие материалы по этой песне:
  • Аккорды и текст

Страница создана 15.08.2013
http://primanota.ru/chris-ross/maybe-its-me-chords.htm
Привет, Гость.
Предлагаем пройти революционный курс по гитаре.
Подарок от PrimaNota.Ru, забирай!