PrimaNota.ru - самый крупный в мире бесплатный архив песенных текстов, аккордов, табулатур и нот


Chris Rice - Live By Faith - текст песни, таба, видео

Регистрация Запомнить меня
Войти через:  Facebook Google Twitter Vk Yandex Mail.ru

Chris Rice - Live By Faith - текст песни, таба, видео

Печатать
Просмотров: 144
Уроки эстрадного вокала в Санкт-Петербурге
		   LIVE BY FAITH
Chris Rice
Past the edges
copyright:  1994 BMG Songs, Inc. (gospel division)/Ocean Motion Music 
(BMI)
Tabbed by:  Tyler E (ty160@juno.com)


I am not responsible for any errors on this tab.  Any corrections and 
suggestions are much appreciated.  This is not set in stone.  I didn't 
take my time so there may be some mistakes.  If you know the few incerps 
throughout the song, please add to this.

Intro:

--4-----------------------------------1---------------------1---------
-------------------2---------2O4-----------2-----------------------4-
----------------------------------------------------------------------
--3-----------3--------------3----------------------3-----------3-----
--------4---------------4------------------4-------------------------
----------------------------------------------------------------------
                                      play 2 times

--4-----------------------------------1---------------------1---------
-------------------2---------2O4-----------2------------------------4-
----------------------------------------------------------------------
--3-----------3--------------3----------------------3-----------------
--------4---------------4------------------4--------------------------
----------------------------------------------------------------------
                                      play 2 times

--4------------------------------1------------------1-----------------
------------------2-------2O4--------2-------------------4------2-----
---------------------------------------------------------------(3)----
--3----------3------------3----------------------3--------------------
--------4-------------4------------------4----------------------4-----
----------------------------------------------------------------------

Romans 8:5
     
Добавлено: 21.08.2013
Другие материалы по этой песне:
  • Аккорды и текст

Страница создана 05.03.2012
http://primanota.ru/chris-rice/live-by-faith-chords.htm
Привет, Гость.
Предлагаем пройти революционный курс по гитаре.
Подарок от PrimaNota.Ru, забирай!