PrimaNota.ru - самый крупный в мире бесплатный архив песенных текстов, аккордов, табулатур и нот


Chris Pureka - 3 Am - таба, видео

Регистрация Запомнить меня
Войти через:  Facebook Google Twitter Vk Yandex Mail.ru

Chris Pureka - 3 Am - таба, видео

Печатать
Просмотров: 118
Уроки эстрадного вокала в Санкт-Петербурге
Авторы: Chris Pureka

-------------------------------------------------------------------------------
                             3AM - Chris Pureka
-------------------------------------------------------------------------------
Tabbed by:
E-mail: ndrazick@gmail.com


I'm not totally sure what she does in the chorus but this is how I play it and it sounds alright

                              CAPO 4th FRET
Tuning: Standard

Intro - Play 2x
e|--------3p0----------------------------------------------------------------|
B|--------1---------1--1----------1---------------1p0------------------------|
G|-----0------------2--2p0------0--------------0-----------------------------|
D|---------------------------------------------------------------------------|
A|--3-------------0----------------------------------------------------------|
E|----------------------------1---------1--1---------------------------------|

Verse - 
e|---------------------------------------------------------------------------|
B|--------1-------------1--------------1-------------1p0---------------------|
G|-----0-------------2-------------0-------------0---------------------------|
D|---------------------------------------------------------------------------|
A|--3---------3--0---------0-------------------------------------------------|
E|------------------------------3-----------0h1------------------------------|

Chorus   The c-chord riff at the end of each line is kinda messy. I play it different every
         time but this is the basic idea. Any variety of plucking in the C-shape would 
sound good.
e|---------------------------------------------------------------------------|
B|---------1--------------3-----------------1------0h1p0---------------------|
G|---------2--------------4-----------------0------0-------------------------|
D|-----3------3--------5-----5----------2--------2---------------------------|
A|----------------------------------3----------------------------------------|
E|--1----------------3-------------------------------------------------------|

e|---------------------------------------------------------------------------|
B|---------1--------------3--------------------------1-----0h1---------------|
G|---------2--------------4-----------------0-----------0--------------------|
D|-----3------3--------5-----5----------2--------2---------------------------|
A|----------------------------------3----------------------------------------|
E|--1----------------3-------------------------------------------------------|

e|--------------------------------------------------------------------------|
B|---------1--------------3-------------------------------------------------|
G|---------2--------------4-----------------0-------------------------------|
D|-----3------3--------5-----5----------2-----------------------------------|
A|----------------------------------3------------3---2----------------------|
E|--1----------------3------------------------------------------------------|

e|---------------------------------------------------------------------------|
B|--------1--------------3---------------------------------------------------|
G|--------2--------------4---------------------------------------------------|
D|-----3-----3--------5-----5------------------------------------------------|
A|---------------------------------------------------------------------------|
E|--1--------------3---------------------------------------------------------|

Lyrics
here i am again, coming in from the cold. here i am again, humming your tune.
well here i am again, just waiting around in my rain soaked shoes,
half smile, half frown 'cause i'm thinking about you in your summer dress,
oh you're out there in the sun somewhere.

so maybe i should go get lost, or maybe i should go get drunk, or maybe i should just 
forget, all about you.

woken 3 a.m. by the freight train. it's all crickets and puddles and weeks and weeks 
of rain here.
i hear that alix is back in new york, but this small town it suits me well,
 i like all the farms and the fields that lead me far down dirt roads.
oh and these things i just want to tell you still, but you stopped listening, oh well, 
didn't you?

so maybe... well its just a waste of time, this old broken record song, it plays over in 
my head,
it just goes on and on and on, its just goes on and on and on.
so here i am again coming in from the cold, here i am again humming your tune,
here i am again, just waiting around, wishing, wishing i wasn't missing you,
wishing, wishing i wasn't missing, wishing, wishing i wasn't missing you

************************************

| /   slide up
| \   slide down
| h   hammer-on
| p   pull-off
| ~   vibrato
| +   harmonic
| x   Mute note
| b   Bend
| pb  Pre-bend
| br  Bend release
| pbr Pre-bend release
| brb Bend release bend

************************************
Добавлено: 27.07.2015
Другие материалы по этой песне:
  • Аккорды и текст

Страница создана 27.07.2015
http://primanota.ru/chris-pureka/3-am-chords.htm
Привет, Гость.
Предлагаем пройти революционный курс по гитаре.
Подарок от PrimaNota.Ru, забирай!