PrimaNota.ru - самый крупный в мире бесплатный архив песенных текстов, аккордов, табулатур и нот


Chris Pontius - Karazy - таба, бас-таба, видео

Регистрация Запомнить меня
Войти через:  Facebook Google Twitter Vk Yandex Mail.ru

Chris Pontius - Karazy - таба, бас-таба, видео

Печатать
Просмотров: 224
Уроки эстрадного вокала в Санкт-Петербурге
Artist - Chris Pontius
Song - Karazy
Album - Jackass 2 Soundtrack





Verse/Intro

E|----------------------------------------------------|
B|----------------------------------------------------|
G|----------------------------------------------------|
D|-7-7-7-5-5-5-5-5-5-5-5-7-7-7-10-10-10 10 10 10 10 10|
A|-7-7-7-5-5-5-5-5-5-5-5-7-7-7-10-10-10-10-10-10-10-10| 
e|-5-5-5-3-3-3-3-3-3-3-3-5-5-5-8--8--8--8--8--8--8--8-|

Chorus
E|---------------------------------------------------------|
B|---------------------------------------------------------|
G|---------------------------------------------------------|
D|-5-5-5-5-5-5-7-7-7-7-7-7-7-10-10-10-10-10-10-5-5-5-5-5-5-|
A|-5-5-5-5-5-5-7-7-7-7-7-7-7-10-10-10-10-10-10-5-5-5-5-5-5-| 
e|-3-3-3-3-3-3-5-5-5-5-5-5-5-8--8--8--8--8--8--3-3-3-3-3-3-|

Bridge
E|----------------------------------------------------|
B|----------------------------------------------------|
G|----------------------------------------------------|
D|----------------------------------------------------|
A|----------------------------------------------------| 
e|-5-5-5-3-3-3-3-3-3-3-3-5-5-5-8--8--8--8--8--8--8--8-|
   . . . . . . . . . . . . . . .  .  .  .  .  .  .  .  Palm mute

This is in the 'break it down' part when he says 'oh play that one thing for me dude'
You can add in the fifth and octave of the chord if you want 
but it's no biggie.
Добавлено: 28.02.2012
Другие материалы по этой песне:

Страница создана 28.02.2012
http://primanota.ru/chris-pontius/karazy-chords.htm
Привет, Гость.
Предлагаем пройти революционный курс по гитаре.
Подарок от PrimaNota.Ru, забирай!