PrimaNota.ru - самый крупный в мире бесплатный архив песенных текстов, аккордов, табулатур и нот


Chris Pierce - Are You Beautiful - таба, видео

Регистрация Запомнить меня
Войти через:  Facebook Google Twitter Vk Yandex Mail.ru

Chris Pierce - Are You Beautiful - таба, видео

Печатать
Просмотров: 171
CHRIS PIERCE: ARE YOU BEAUTIFUL

Standard Tuning – Capo 2nd Fret

Part 1 x 2

Part 1
You never know when you meet someone
Will she be the one?
You never know

Part 2
and I wonder to myself
I wonder to myself

Part 3
Are you beautiful?
Are you beautiful on the inside?

You never know when you kiss someone
Will she be the one?
You never know and I wonder to myself
I wonder to myself
Are you beautiful?
Are you beautiful on the inside?


Bridge (the ending part isn't completely correct but if you can figure it out, please, send it to me)

(Bar chord these for fuller sound)
Dm
Or have I been fooled
F7
And hypnotized
C7
I just want to see
               G7
The truth in your eyes
               G7
Are you beautiful?
               B7
Are you beautiful?
               Bm7
Are you beautiful on the inside?


Part 1
|----------------------------------|
|---6--x--5--x--3--3----1----------|
|---5--x--5--x--5--5----2----------|
|---3--x--3--x--3--3----3----------|
|----------------------------------|
|----------------------------------|

Part 2
|---x----x-----|
|---6----6-----|
|---0----5-----|
|---0----0-----|
|---x----x-----|
|---6----5-----|

Part 3
|---1----0-----|          |---x----5-----|
|---1----1-----|          |---6----5-----|
|---2----2-----|          |---5----5-----|
|---3----2-----|          |---0----4-----|
|---0----0-----|          |---x----x-----|
|---0----0-----|          |---6----5-----|
Are you beautiful.........inside...inside
Добавлено: 22.03.2012
Другие материалы по этой песне:
  • Аккорды и текст

Страница создана 26.02.2012
http://primanota.ru/chris-pierce/are-you-beautiful-chords.htm
Привет, Гость.
Предлагаем пройти революционный курс по гитаре.
Подарок от PrimaNota.Ru, забирай!