PrimaNota.ru - самый крупный в мире бесплатный архив песенных текстов, аккордов, табулатур и нот


Chris Holmes - Way To Be - таба, видео

Регистрация Запомнить меня
Войти через:  Facebook Google Twitter Vk Yandex Mail.ru

Chris Holmes - Way To Be - таба, видео

Печатать
Просмотров: 102
-------------------------------------------------------------------------------
                             way to be  - Chris Holmes
-------------------------------------------------------------------------------
Tabbed by:cruehead419
E-mail:gnrfan300@yahoo.com
Chris Holmes way to be
album Nothin to lose CHP productions 2012
Tuning:1/2step
intro
e|--------------------------------------------------------------------------------------|
B|--------------------------------------------------------------------------------------|
G|--------------------------------------------------------------------------------------|
D|--------------------7---11-12--9----7-------------------------------------------------|
A|----11--11---------5-----9--10-7---5--------------------------------------------------|
E|----9---9-----------------------------------------------------------------------------|
guitar 2
e|-------------------------------------------------------------------------------------|
B|--2-2--4-5--7-8-7--5-----------------------------------------------------------------|
G|-1-1---3-4--6-7-6--4-----------------------------------------------------------------|
D|-------------------------------------------------------------------------------------|
A|-------------------------------------------------------------------------------------|
E|-------------------------------------------------------------------------------------|
verse
e|-------------------------------------------------------------------------------------|
B|-------------------------------------------------------------------------------------|
G|----6-6--------------------6---6-----------------------------------------------------|
D|----6-6----------4-4-------6---6--------4-4------------------------------------------|
A|----4-4----------4-4-------4---4--------4-4------------------------------------------|
E|-----------------2-2--------------------2-2------------------------------------------| 
************************************

| /   slide up
| \   slide down
| h   hammer-on
| p   pull-off
| ~   vibrato
| +   harmonic
| x   Mute note
| b   Bend
| pb  Pre-bend
| br  Bend release
| pbr Pre-bend release
| brb Bend release bend

************************************
Добавлено: 07.11.2015
Другие материалы по этой песне:
  • Аккорды и текст

Страница создана 07.11.2015
http://primanota.ru/chris-holmes/way-to-be-chords.htm
Привет, Гость.
Предлагаем пройти революционный курс по гитаре.
Подарок от PrimaNota.Ru, забирай!