PrimaNota.ru - самый крупный в мире бесплатный архив песенных текстов, аккордов, табулатур и нот


Chris Duarte - Letter To My Girlfriend - таба, видео

Регистрация Запомнить меня
Войти через:  Facebook Google Twitter Vk Yandex Mail.ru

Chris Duarte - Letter To My Girlfriend - таба, видео

Печатать
Просмотров: 112
this is my first tab and i know it's not exactly correct nor are the
lyrics but oh well. someone has to tab chris so here goes my version of

Letter To My Girlfriend
song written by E. Jones, performed by Chris Duarte.

tune down 1/2 step if playing with CD
song is played in G


---------3--6--6--3--3--5--3------2/3--3--2/3--3----------------------|REPEAT ONCE
--3--6------------------------5---2/3--3--2/3--3----------------------|
----------------------------------3/4--4--3/4--4----------------------|
----------------------------------------------------------------------|
----------------------------------------------------------------------|
----------------------------------------------------------------------|


---------3--6--6--3--3--5--3-----3--3--3-----------3--6--6--3--3--5--|
--3--6------------------------5--3--3--3-----3--6--------------------|
---------------------------------3--3--3-----------------------------|
---------------------------------2--2--2-----------------------------|
---------------------------------3--3--3-----------------------------|
---------------------------------------------------------------------|

--3------2/3--3--2/3--3------3-6b-6b-3-3-6b-6b-3-3-6b-6b-3-3-6b-6b--|
-----5---2/3--3--2/3--3--3-6----------------------------------------|
---------3/4--4--3/4--4---------------------------------------------|
--------------------------------------------------------------------|
--------------------------------------------------------------------|
--------------------------------------------------------------------|

-3-3-6b-6b-3-3---3--3--3-6-5----------------3--------3--------3-----|
-----------------2--2--2-6-5-----3h6--3--6-----3--6-----3--6--------|
-----------------3--3--3-6-5---5------------------------------------|
-----------------2--2--2-5-4----------------------------------------|
-------------------------6-5----------------------------------------|
--------------------------------------------------------------------|


---------------6--3--------------------------3--------3--------3----|
-3------3--6---------3--6/8-------3h6--3--6-----3--6-----3--6-------|
----5--------------------------5------------------------------------|
--------------------------------------------------------------------|
--------------------------------------------------------------------|
--------------------------------------------------------------------|


-------------6--3---------------------------------------------------|
-3-----3--6--------3--6/8---------3---------------3---------------3-|
----5-----------------------5/6------5p3p0---5/6----5p3p0---5/6-----|
--------------------------------------------------------------------|
--------------------------------------------------------------------|
--------------------------------------------------------------------|

----------------------3-----------3-------------3-------------------|
-------------------------6--3--6b----3-----3--6---------------------|
--5p3p0---3~~-----3b--------------------5---------5b5--3------3-----|
-----------------------------------------------------------5--------|
--------------------------------------------------------------------|
--------------------------------------------------------------------|

--------3------3--------5h6p5--3------------3--6--3-3-----3--6--3---|
------3----6b----6--3--------------------3-----6--3-3-----3---------|
--/5------------------------------5b--5----------------5------------|
--------------------------------------------------------------------|
--------------------------------------------------------------------|
--------------------------------------------------------------------|

-------3----------------3----6-5------------------------------------|
-----3---3--------------3----6-5------------------------------------|
--5---------5b5--3-----------6-5------------------------------------|
--------------------5--------5-4------------------------------------|
-----------------------------6-5------------------------------------|
--------------------------------------------------------------------|
G7
I want to know what ya doin' tonight

So I can see if everythin' is allright
C9
I'll hold ya long in my arms until I'm right
G7
A smilin' face makes a wonderful site
          D9
I want to be with ya, love with ya,
C9
Eat with ya, sleep with ya,
G7                          D#9 D9
Stay with ya all of my life.

G7
I known you darlin' since you only sixteen

You the sweetest thing to enter my dreams
C9
When we're together, my life is more fulfilled
G7
I love you darlin' you know I always will
          D9
I want to be with ya, love with ya,
C9
Eat with ya, sleep with ya,
G7                         D#9 D9
Stay with ya all of my life.



G7
I wrote a letter forever my love

and said a prayer to the heavens up above
C9
so send me back you're safe and sound
G7
and pray that I will be your prisoner and bound
          D9
I want to be with ya, love with ya,
C9
Eat with ya, sleep with ya,
G7                         D#9 D9
Stay with ya all of my life

 then creatively end it!

corrections are more than welcome
Dr. Jeff Williams D.C.
muttdc1@airmail.net
Добавлено: 11.05.2012
Другие материалы по этой песне:

Страница создана 11.05.2012
http://primanota.ru/chris-duarte/letter-to-my-girlfriend-chords.htm
Привет, Гость.
Предлагаем пройти революционный курс по гитаре.
Подарок от PrimaNota.Ru, забирай!