PrimaNota.ru - самый крупный в мире бесплатный архив песенных текстов, аккордов, табулатур и нот


Chris Duarte - Lets Have A Party - таба, видео

Регистрация Запомнить меня
Войти через:  Facebook Google Twitter Vk Yandex Mail.ru

Chris Duarte - Lets Have A Party - таба, видео

Печатать
Просмотров: 89
-------------------------------------------------------------------------------
                             LET'S HAVE A PARTY - Chris Duarte Group
-------------------------------------------------------------------------------


Tabbed by: Isaias Garcia (TexasFury)

Tuning: Half-step down


             Intro                                                
      E      H.           E  E     E  E  E   E  E  E  E  E    
D#||--7b--|--L------------L--5--|--L------------5-----5--7b--|
A#||--6b--|--L------------L--5--|--L--5--8b--5-----5-----6b--|
F#||--7b--|--L------------L-----|------------------------7b--|
C#||------|---------------------|----------------------------|
G#||------|---------------------|----------------------------|
D#||------|---------------------|----------------------------|


  H.           E  E     E  E  E   E  E  E  E  E      Q    E  E  E  E  E  E    
--L------------L--5--|--L--5---------5-----5--7b--|--L----5-----5--7-----7b--|
--L------------L--5--|--L-----8b--5-----5-----6b--|--L----5-----5--7-----6b--|
--L------------L-----|------------------------7b--|--L-------------------7b--|
---------------------|----------------------------|----------7---------------|
---------------------|----------------------------|-------------------0------|
---------------------|----------------------------|--------------------------|


                           |----3----|    |-----3-----|     
  Q    E  E  Q    E  E     Q    Q    Q    Q     Q     Q     
--L----5-----5----7--5--|-------7----8----9----10----11----|
--L----5-----5----7--5--|-------7----8----9----10----11----|
--L---------------7--5--|-------7----8----9----10----11----|
----------7-------------|-------6----7----8-----9----10----|
------------------------|--0----7----8----9----10----11----|
------------------------|----------------------------------|


  |-----3-----|                                               
  Q     Q     Q     E   E   Q       Q    E   E  E  E   E  E   
-------12----13----14--15--16----|--5-----------5------5--5--|
-------12----13----14--15--16----|--5--------5-----8b--5--5--|
-------12----13----14--15--16----|--5----7b------------------|
-------11----12----13--14--15----|---------------------------|
-------12----13----14--15--16----|---------------------------|
---------------------------------|---------------------------|


  E   E  E  E   E  E  E   E     E  E   E  E  E  E  E  E   
------5--5------5--5---------|--5--8b--5-----5-----------|
--8b--5--5--8b--5--5------5--|------------5-----8--5-----|
------------8b--------7b-----|------------------------7--|
-----------------------------|---------------------------|
-----------------------------|---------------------------|
-----------------------------|---------------------------|


  Q     S  S E  E  E  E  E     E   E  E  E   E  E  S  S E   
----------------5-----------|------------------------------|
----------------5-----7--5--|---------8---------8----------|
--Lb----7p-5----------7--5--|--7s--9-----8s--9-----7p-5----|
-------------7-----7--------|---------------------------7--|
----------------------------|------------------------------|
----------------------------|------------------------------|


  E  E  E  E   E  E  E  E     S  S E  E  E   Q     E  E   
--5------------------------|-----------------------------|
--5--7---------------------|--5--L----7------------------|
-----7--5------------------|--5h-6----7--5b--------------|
---------------------5--7--|-------7---------------5--6--|
-----------7~--L--7--------|-----------------7~----------|
---------------------------|-----------------------------|


                              Verse 1                                    
  E  E  E  E   E  E  Q        W                   W                 
------------------0--0----||-------------------|-------------------|
------------------0--0----||-------------------|-------------------|
------------------0--0----||-------------------|-------------------|
--7--5--------------------||-------------------|-------------------|
--------6--7~--L----------||-------------------|-------------------|
--------------------------||-------------------|-------------------|


  Q    E  E  E   E  E  E     E   E  E  E   E  E  Q       W                 
-----------------5--5--5--|------5--5------5--5--5----|-------------------|
-----------------5--5--5--|------5--5------5--5--5----|-------------------|
----------7--Lb-----------|--7b--------7b-------------|-------------------|
--------------------------|---------------------------|-------------------|
--------------------------|---------------------------|-------------------|
--------------------------|---------------------------|-------------------|


  E  E  E   E  Q    Q       H        Q    E  E      E  E  E  E  E   E  E  E   
------------5--8---------|-------------------7b--|--L--5--5--5------5--5--5--|
------------5--8----5----|-------------------6b--|--L--5--5--5------5--5--5--|
-----7--Lb---------------|-------------------7b--|--L-----------7b-----------|
-------------------------|-----------------------|---------------------------|
-------------------------|-----------------------|---------------------------|
-------------------------|-----------------------|---------------------------|


  E   E  Q    H           W                   Q    E  E  E   E  E  E   
------5----------------|-------------------|--------------------5-----|
--8b--5----------------|-------------------|-----------------5-----5--|
-----------------------|-------------------|----------7--Lb-----------|
-----------------------|-------------------|--------------------------|
-----------------------|-------------------|--------------------------|
-----------------------|-------------------|--------------------------|


  E   E  E  E   Q    Q       H        E  E  E   E     E  E  Q    E  E  E   E   
--------------------------|---------------------5--|--5--5-----------------5--|
---------------------7----|---------------------5--|--5--5-----------------5--|
--7p--5--------------7----|--------------7--Lb-----|----------------7--Lb-----|
---------7----------------|------------------------|--------------------------|
------------7~--L---------|------------------------|--------------------------|
--------------------------|------------------------|--------------------------|


  Q     E  E  E   E  Q       E   E  E  E  E   E  E  E   
--------5---------5-------|------5--5---------5--5--5--|
--------5---------5--8----|------5--5---------5--5--5--|
--7b-------7--Lb----------|--7b--------7--Lb-----------|
--------------------------|----------------------------|
--------------------------|----------------------------|
--------------------------|----------------------------|


  E   E  E  E  E   E  E  E     E  E  E  E  E   E  Q       W                 
------5------------5--5--5--|--5--5--5---------5-------|-------------------|
------5------------5--5--5--|--5--5--5---------5-------|-------------------|
--7b--------7--Lb-----------|-----------7--Lb----------|-------------------|
----------------------------|--------------------------|-------------------|
----------------------------|--------------------------|-------------------|
----------------------------|--------------------------|-------------------|


  E  E   E  E  E  E  E  E     E  E  Q    H         
-----7b--L--5-----5-----5--|--5--5--5-------------|
-----6b--L--5--8--5--5--5--|--5--5--5-------------|
-----7b--L-----------------|----------------------|
---------------------------|----------------------|
---------------------------|----------------------|
---------------------------|----------------------|


  E   E  E  E   E   E  E  E     E  E  E   E  E  E  E   E   
------5--5----------5--5--5--|---------------5--5---------|
------5--5----------5--5--5--|------------5--5--5---------|
--7b--------7b--Lb-----------|-----7--Lb-----------7b--7--|
-----------------------------|----------------------------|
-----------------------------|----------------------------|
-----------------------------|----------------------------|


                                Chorus 1                      
  E   E   E  E   E  E  Q        Q    Q     E  E  E  E   
----------------------------||-------------5--5--------|
--------------------7--7----||-------------5--5--------|
--5b----------------7--7----||-------7b-------------7--|
------7p--5-----------------||-------------------------|
-------------7~--L----------||-------------------------|
----------------------------||-------------------------|


  E   E  E  E  E   E  E  E     Q    Q     E  E  E  E   
------5--5--5------5--5--5--|-------------5--5--------|
------5--5--5------5--5--5--|-------------5--5--------|
--Lb-----------7b-----------|-------7b-------------7--|
----------------------------|-------------------------|
----------------------------|-------------------------|
----------------------------|-------------------------|


  E   E  E  E   E  E   E  E     Q    Q     E  E   E   E   
------5--5------5------5--5--|-------------5--5----------|
------5--5------5------5--5--|-------------5--5----------|
--Lb--------7b-----7b--------|-------7b----------(0)--7--|
-----------------------------|-------------------(0)-----|
-----------------------------|---------------------------|
-----------------------------|---------------------------|


  E   E  E  E   E  E   E  E     Q    Q     E  E   E   E   
------5--5------5------5--5--|-------------5--5----------|
------5--5------5------5--5--|-------------5--5----------|
--Lb--------7b-----7b--------|-------7b----------(0)--7--|
-----------------------------|-------------------(0)-----|
-----------------------------|---------------------------|
-----------------------------|---------------------------|


  E   E  E  E  E  E  E  E     Q    Q    E  E  E  E     Q    E  E  Q    E  E   
------5--5-----5-----5--5--|-------7-------7--------|----------5--L----5-----|
------5--5-----5-----5--5--|-------7-------7-----5--|--L-------5--L----5-----|
--Lb-----------------------|-------7-------7-----5--|--L-------5--L----5--7--|
------------7-----7--------|------------------------|------------------------|
---------------------------|-------7----7-----------|------------------------|
---------------------------|------------------------|------------------------|


  E   E   E  E  E  E    E  E     E  E  E  E  E  E  E  E   
------------------------------|--------------------------||
----------------7-------------|-----------------8--8--8--||
--Lb--Lb--5-----7-----5g6--6--|-----------------7--7--7--||
-------------7-----7----------|--7--------------6--6--6--||
------------------------------|-----5--6--7--L--7--7--7--||
------------------------------|--------------------------||


  Guitar Solo                                                        
  E   E   E   E   Q    E  E     E   E  E  E   E  E  E  E   
-----------------------------|----------------------------|
-----------------------------|----------------------5-----|
--7b--Lb--Lb--5~--L----------|----------------------5--7--|
-----------------------7-----|--5h--7-----7~--L--7--------|
--------------------------7--|----------------------------|
-----------------------------|----------------------------|


  E   E  E  E  E  E  E   E     E  E   E  E  E  E  E   E   
---------5--8--5-----8b--5--|-----8b--5-----5------------|
------5-----------5---------|--5---------5-----8------5--|
--Lb------------------------|---------------------7b-----|
----------------------------|----------------------------|
----------------------------|----------------------------|
----------------------------|----------------------------|


  E    E  E   E    Q     E   S  S     E  E  E  E   S  S E  E   E   
----------8--------------8---------|-----5------------------------|
--8s--10-----10~---L~-------10p-8S-|--5-----8--------------5b-----|
-----------------------------------|-----------7b--7p-5----5b-----|
-----------------------------------|-----------------------5h--7--|
-----------------------------------|--------------------7---------|
-----------------------------------|------------------------------|


  E  S  S E  E  E  E  E   E     E  E  E  E   E   E   E  E    
-----------------------------|--5-----7--5-------8b--L--8b--|
--7--------------------------|--5-----7--5-------7b--L--7b--|
--7--5h-6--------------------|--------7--5-------8b--L--8b--|
----------7-----5-----5h--7--|-----7--------(0)-------------|
-------------7-----7---------|-----7------------------------|
-----------------------------|------------------------------|


  E  E  Q    E  E  E  E     E  E  E   E  E   E  E  E    
--L--5--7----5--7--5-----|-----------------------------|
--L--5--7----5--7--5-----|----------------------7------|
--L--5--7-------7--5-----|---------------5b-----7--5b--|
-------------------------|-----5--5b---------7---------|
----------------------7--|--L---------7----------------|
-------------------------|-----------------------------|


  E  E    E  E  E  E  E  E      H        E  E  Q     
-----------------------------|--------------5--5----|
----------5-----7--5---------|--------------5--5----|
--------5g6-----7--5-----7b--|--L--------L----------|
--7----------7---------------|----------------------|
-----7-----------------------|----------------------|
-----------------------------|----------------------|


  E    E   E   E  E  E  E   E     E    E  E  E  E  E  E  E    
---------------5--L--5------5--|--5--7g8--5--5--8--5--5------|
---------------5--L--5------5--|--5--7g8--5--5--8--5--5------|
--7br--Lb--Lb-----------7b-----|-------------------------7b--|
-------------------------------|-----------------------------|
-------------------------------|-----------------------------|
-------------------------------|-----------------------------|


  E  E  E   E  E   E  E  E     E  E  E   E  E  E  E  E   
--5--5------5------5-----5--|--5--5------5--5--5--5--8--|
--5-----8b--5------5-----5--|--5--5--8b--5--5--5--7--7--|
---------------7b-----7-----|---------------------------|
----------------------------|---------------------------|
----------------------------|---------------------------|
----------------------------|---------------------------|


  Q     Q     Q     Q        E  E  E   E  E  E    E  E   
--L~----8~----8~----8~----|--5--5---------5----------8--|
--L~----7~----7~----7~----|--5--5------5-----8s--10-----|
--------------------------|--------7b-------------------|
--------------------------|-----------------------------|
--------------------------|-----------------------------|
--------------------------|-----------------------------|


   Q       Q       Q       Q          H.             E   E    
--10b~----10b~----10b~----10b~----|--10b~------------8--10b--|
----------------------------------|--------------------------|
----------------------------------|--------------------------|
----------------------------------|--------------------------|
----------------------------------|--------------------------|
----------------------------------|--------------------------|


   S  S  E   E   E   S  S  E  E  E     E  E  S  S E  E  E  E  S  S  
--10p-8-----10p--8------------5-----|----------------5-------------|
--------10----------10p-8s-5-----8--|--5--5----------------7-------|
------------------------------------|--------5p-0----------7--5h-6-|
------------------------------------|-------------7-----7----------|
------------------------------------|-------------------7----------|
------------------------------------|------------------------------|


  E  E  E  E  E  E  E   E      E  E  E  E  E   E   E  E   
-----------------5----------|--------------5-------5--5--|
-----------------5--7-------|--7--5--------5--(0)--5--5--|
--------------------7--(0)--|--7--5-----------(0)--------|
--7-----5--6--7--------(0)--|----------------------------|
-----7----------------------|--------6--7----------------|
----------------------------|----------------------------|


  E  E  E  E  E  E  E  E     E  E  E  E  E  E  E  E   
-----5--5-----5--5-----5--|--5-----5--5-----5-----5--|
-----5--5-----5--5-----5--|--5-----5--5-----5-----5--|
--------------------------|--------------------------|
--------------------------|--------------------------|
--7--------7--------7-----|-----7--------7-----7-----|
--------------------------|--------------------------|


  E  E  E  E  E  E  E  E     E  E  E  E  E  E  Q     
--------5-----5--5-----5--|-----5-----5--5-----5----|
-----5-----8--5--5--8--5--|-----5-----5--5-----5----|
--------------------------|-----------5--5-----5----|
--------------------------|-------------------------|
--7-----------------------|--7--------------7-------|
--------------------------|-------------------------|


  Q     E  E  E  E  E  E      E  E   E  E   E  E  Q      
--8b----5--------------8b--|--L---------8b--L--5--------|
--7b----5--8--5--7-----7b--|--L---------7b--L--5--7\----|
--8b-------------7-----8b--|--L--8b--L--8b--L-----7\----|
---------------------------|----------------------------|
--------------------0------|----------------------------|
---------------------------|----------------------------|


  E   E   E   E   E   E       E   E      E   E    E  E  E   S S E  E   
--5----------------------------------|--17-------17-------------5-----|
--5--------------(0)-------------17--|------20b-----------------------|
--5--(0)--7p--5--(0)--7/--17g18------|---------------7--Lp--5------7--|
-----(0)-----------------------------|------------------------7----7--|
-------------------------------------|--------------------------------|
-------------------------------------|--------------------------------|


  Q    E   E   E  E  E  E     E  E  E  E  E  E   E  E   
---------------7--7--------|---------------------------|
-------7--(0)--7--7-----5--|--L-----------5---------5--|
-------7--(0)--7--7-----5--|--L-----------5--7b--L-----|
----------(0)--------------|--------5------------------|
--7------------7--7-----5--|--L--7-----7---------------|
---------------------0-----|---------------------------|


  E   E   E  E  E  E  E  E     E  E  E  E  E  E  E   E    
----------------------------|-----------------5--7-------||
----------------------------|-----------------5--7--(0)--||
--7~--5b--------------------|-----------------5--7--(0)--||
----------7-----5-----5--6--|--7--------------------(0)--||
-------------7-----7--------|-----5--6--7--L-------------||
----------------------------|----------------------------||


  Verse 2                                                                 
  Q    E  E   H           E  E  E  E  Q    Q       W                 
-----------------------|--5-----5--5--L---------|-------------------|
----------5---L--------|--5-----5--5--L---------|-------------------|
----------7b--L--------|------------------------|-------------------|
-----------------------|-----7------------------|-------------------|
-----------------------|------------------------|-------------------|
-----------------------|------------------------|-------------------|


  E  E   E  E  E  E    E  E     Q    Q    E  E   E  E   
------------5----------------|----------------------5--|
------------5--7-------------|----------------------5--|
-----7b--L-----7-----5g6-----|---------------7b--L-----|
------------------7----------|-------------------------|
------------------7-------7--|--7----------------------|
-----------------------------|-------------------------|


  Q    E  E   E  E  E  E     E   E  Q    E  E   E  E   
-----------------5--5--5--|------5-----------------5--|
-----------------5--5--5--|------5-----------------5--|
----------7b--L-----------|--7b-------------7b--L-----|
--------------------------|---------------------------|
--------------------------|---------------------------|
--------------------------|---------------------------|


  E   E  E   E  E  E  E   E     E   Q.      E   E  E  E   
------5------5--5--5------5--|------------------5--5-----|
------5------5--5--5------5--|--8b--Lb------Lb--5--5-----|
--7b-----7b-----------7b-----|------------------------7--|
-----------------------------|---------------------------|
-----------------------------|---------------------------|
-----------------------------|---------------------------|


  E   E  E   E  E  E  E   E     E   E  E  E  E   E  E  E    
------5------5--5--5--8b--5--|------5--5------------5------|
------5------5--5--5--7b--5--|--8b--5--5---------5--5------|
--Lb-----7b------------------|------------7--Lb--------7b--|
-----------------------------|-----------------------------|
-----------------------------|-----------------------------|
-----------------------------|-----------------------------|


  E   E  E  E  Q    E  E     H        E  E   E  E     E  E  Q    E  E   E  E   
--------------------5--5--|---------------------5--|--5--5-----------------5--|
--------------------5--5--|---------------------5--|--5--5-----------------5--|
--Lb--5-------------------|--------------7b--L-----|----------------7b--L-----|
---------7----------------|------------------------|--------------------------|
------------7--L----------|------------------------|--------------------------|
--------------------------|------------------------|--------------------------|


                  PM                                                           
  E  E  E  E   E  E  E  E     E  E  E  E   E  E  Q       H         Q    E  E   
--5--5---------------5--5--|--5--5--5---------5--5----|--8b----------------8--|
--5--5------------5--5--5--|--5--5--5---------5--5----|-----------------------|
-----------7b--L-----------|-----------7b--L----------|--8b----------------8--|
---------------------------|--------------------------|-----------------------|
---------------------------|--------------------------|-----------------------|
---------------------------|--------------------------|-----------------------|


  H.            E  E     E  E  Q      E  E  E  E     E  E  E  E  E  E  E  E    
--Lb------------L--5--|--------7------------------|-----------------5--7------|
-------------------5--|-----5--7------------7--5--|-----------------5--7------|
--Lb------------L-----|-----5--7----5g6-----7--5--|-----------------5--7--5b--|
----------------------|------------------7--------|--7-----5--7--L------------|
----------------------|---------------------------|-----7---------------------|
----------------------|---------------------------|---------------------------|


  Q    E  E  Q    E  E     Q    E  E  E  E  Q     
------------------------|-------5--5-----5--5----|
-------7-----7----------|-------5--5-----5--5----|
-------7-----7----------|-------5--5-----5--5----|
------------------------|------------------------|
--7-------7-------7--5--|--5----5--5-----5--5----|
------------------------|------------------------|


  E  E   E  E  E   E   E   E     E  E  E  E  E   E  Q     
-----8b--L--5--7--------------|---------------------7----||
------------5--7--------------|---------------------7----||
-----8b--L-----7--(0)--5h--6--|--7------------------7----||
------------------(0)---------|------------------6-------||
------------------------------|-----5--6--7--L~----------||
------------------------------|--------------------------||


  Chorus 2                                                    
  Q    Q     E  E  E  E     E   E  E  E   E  E  E   E   
-------------5--5--------|------5--5------5--5------5--|
-------------5--5--------|------5--5------5--5------5--|
-------7b-------------7--|--Lb--------7b--------7b-----|
-------------------------|-----------------------------|
-------------------------|-----------------------------|
-------------------------|-----------------------------|


  Q    Q     E  E  E  E      E  E  E  E   E  E   E  E   
-------------5--5---------|-----5--5------5------5--5--|
-------------5--5---------|-----5--5------5------5--5--|
-------7b-------------7b--|--L--------7b-----7b--------|
--------------------------|----------------------------|
--------------------------|----------------------------|
--------------------------|----------------------------|


  Q    Q     E  E  E  E      E  E  E  E   E  E   E  E   
-------------5--5---------|-----5--5------5------5--5--|
-------------5--5---------|-----5--5------5------5--5--|
-------7b-------------7b--|--L--------7b-----7b--------|
--------------------------|----------------------------|
--------------------------|----------------------------|
--------------------------|----------------------------|


  Q    Q     E  E  E  E      E  E  E  E   E  E  E   E   
-------------5--5---------|-----5--5----------------5--|
-------------5--5---------|-----5--5------5--5------5--|
-------7b-------------7b--|--L--------7b--------7b-----|
--------------------------|----------------------------|
--------------------------|----------------------------|
--------------------------|----------------------------|


  Q    Q    E  E  E  E     E  E  E  E  E  E   E   E   
------------------------|-----------5--5--5-------5--|
------------7--7-----5--|--L--5-----5--5--5--(0)--5--|
------------7--7-----5--|--L--5-----5--5--5--(0)--5--|
------------------------|--------------------(0)-----|
--7---------------------|--------5-------------------|
-------0----------------|----------------------------|


  E   E  E   E  E   E  E   E     E  E  E  E     Q.      E   
------5------5------5------5--|--5--5-------------------5--||
------5------5------5------5--|--5--5-------------------5--||
--7b-----7b-----7b-----7b-----|-----------7pbr--Lb---------||
------------------------------|----------------------------||
------------------------------|----------------------------||
------------------------------|----------------------------||


  Outro                                                        
  E  E  E   E  E  E   E  E     E   E  E  E   E  E  E   E   
--L--5------5--5--8b--5--5--|--8b--5--5------5--5------5--|
--L--5------5--5--8b--5--5--|------5--5--8b--5--5------5--|
--------7b------------------|----------------------7b-----|
----------------------------|-----------------------------|
----------------------------|-----------------------------|
----------------------------|-----------------------------|


  E   E  E   E  E   E  E  E     E  E  E   E   E   E  E   E    
------5------5------5--L--5--|--L-----5-------7--------------|
--8b--5------5------5--L--5--|--L-----5-------7--------------|
---------7b-----7b-----------|-----------(0)--7p--5-----(0)--|
-----------------------------|-----------(0)---------7--(0)--|
-----------------------------|-----7-------------------------|
-----------------------------|-------------------------------|


    E  E  S  S E  E  E  E  E       E  E  S  S E  E  E  E  E   
------------------5-----------|------------------5-----------|
--7g8--8----------------7--5--|--7g8--8-------------7--5-----|
--8g9--9--7p-5----------7--5--|--8g9--9--7p-5-------7--5-----|
---------------7--------------|---------------7-----7--5-----|
---------------------7--------|---------------------------7--|
------------------------------|------------------------------|


     E  S S Q     Q    E  E     E  S S Q    E  E  E  E   
------------------5----------|--------------------------|
--8g10--7-7-------5----7-----|--7-----------------------|
--------7-7-9\----5----7--5--|--7--x-x------------------|
-----------------------------|--7--x-x-5----7--5--------|
-----------------------------|--------------------7--6--|
-----------------------------|--------------------------|


  Q    Q    E  E  E  E     E  E  E  E  E  E  E  E   
-------7----7--7-----5--|--L--5-----5--L--5--7--5--|
-------7----7--7-----5--|--L--5-----5--L--5--7--5--|
-------7----7--7-----5--|--L--5-----5--L--5--7--5--|
------------------------|--------------------------|
--7------------------5--|--L-----------------------|
------------------0-----|--------------------------|


  |----3----|    |----3----|       |-----3----|     |-----3-----|     
  Q    Q    Q    Q    Q    Q       Q    Q     Q     Q     Q     Q     
-------5----6----7----8----9----|-------9----10----11----12----13----|
-------5----6----7----8----9----|-------9----10----11----12----13----|
-------5----6----7----8----9----|-------9----10----11----12----13----|
--------------------------------|------------------------------------|
-------5----6----7----8----9----|-------9----10----11----12----13----|
--------------------------------|------------------------------------|


  |-----3-----|     |-----3-----|                                        
  Q     Q     Q     Q     Q     Q        H             W                 
-------13----14----15----16----17----|-------------|--12----------------|
-------13----14----15----16----17----|-------------|--12----------------|
-------13----14----15----16----17----|-------------|--12----------------|
-------------------------------------|-------------|--------------------|
-------13----14----15----16----17----|-------------|--12----------------|
-------------------------------------|--17\--------|--------------------|


   W                    H         Q     Q      
---L----------------|---L--------12\---------||
---L----------------|---L--------12\---------||
---L----------------|---L--------12\---------||
--------------------|------------------------||
---L----------------|---L--------12\---------||
--------------------|------------------------||



Rhythm Guitar

      E  E  E  E  E  E  E  E     E  E  E  E  E  E  E  E   
D#||--------------------------|--------------------------|
A#||--------------------------|--------------------------|
F#||--------------------------|--------------------------|
C#||--2--2--4--2--2--2--4--2--|--2--2--4--2--2--2--4--2--|
G#||--0--0--0--0--0--0--0--0--|--0--0--0--0--0--0--0--0--|
D#||--------------------------|--------------------------|


  E  E  E  E  E  E  E  E     E  E  E  E  E  E  E  E   
--------------------------|--------------------------|
--------------------------|--------------------------|
--------------------------|--------------------------|
--2--2--4--2--2--2--4--2--|--2--2--4--2--2--2--4--2--|
--0--0--0--0--0--0--0--0--|--0--0--0--0--0--0--0--0--|
--------------------------|--------------------------|


  E  E  E  E  E  E  E  E     E  E  E  E  E  E  E  E   
--------------------------|--------------------------|
--------------------------|--------------------------|
--2--2--4--2--2--2--4--2--|--2--2--4--2--2--2--4--2--|
--0--0--0--0--0--0--0--0--|--0--0--0--0--0--0--0--0--|
--------------------------|--------------------------|
--------------------------|--------------------------|


  E  E  E  E  E  E  E  E     E  E  E  E  E  E  E  E   
--------------------------|--------------------------|
--------------------------|--------------------------|
--------------------------|--------------------------|
--2--2--4--2--2--2--4--2--|--2--2--4--2--2--2--4--2--|
--0--0--0--0--0--0--0--0--|--0--0--0--0--0--0--0--0--|
--------------------------|--------------------------|


  E  E  E  E  E  E  E  E     E  E  E  E  E  E  E  E   
--------------------------|--------------------------|
--------------------------|--------------------------|
--------------------------|--2--2--4--2--2--2--4--2--|
--------------------------|--0--0--0--0--0--0--0--0--|
--2--2--4--2--2--2--4--2--|--------------------------|
--0--0--0--0--0--0--0--0--|--------------------------|


  E  E  E  E  E  E  E  E     E  E  E  E  E  E  E  E    
--------------------------|--------------------------||
--------------------------|--------------------------||
--------------------------|--------------------------||
--2--2--4--2--5--2--4--2--|--2-----------------------||
--0--0--0--0--0--0--0--0--|--0--------------2--4--2--||
--------------------------|-----3--0--0--L--0--0--0--||



Duration Legend
---------------
W - whole
H - half
Q - quarter
E - 8th
S - 16th
. - note dotted
|-n-|  - n-tuplets


Tablature Legend
----------------
L - tied note
x - dead note
g - grace note
h - hammer on
p - pull off
b - bend
br - bendRelease
S - shift slide
s - legato slide
/ -  slide into from below or out of upwards
\ -  slide into from above or out of downwards
~ - vibrato


Get my other tabs for Guitar Pro, Powertab, guitar/bass text and chords at
http://profile.ultimate-guitar.com/TexasFury/contributions/

Добавлено: 15.10.2013
Другие материалы по этой песне:

Страница создана 15.06.2013
http://primanota.ru/chris-duarte/lets-have-a-party-chords.htm
Привет, Гость.
Предлагаем пройти революционный курс по гитаре.
Подарок от PrimaNota.Ru, забирай!