PrimaNota.ru - самый крупный в мире бесплатный архив песенных текстов, аккордов, табулатур и нот


Chris Duarte - Duarte E Ezell - таба, видео

Регистрация Запомнить меня
Войти через:  Facebook Google Twitter Vk Yandex Mail.ru

Chris Duarte - Duarte E Ezell - таба, видео

Печатать
Просмотров: 104
-------------------------------------------------------------------------------
                             DUARTE e EZELL - Chris Duarte Group
-------------------------------------------------------------------------------


Tabbed by: Isaias Garcia (TexasFury)

Tuning: Half-step down


Violin - Les Paul

                Main Theme
                SIGNO                                                         
       E        H        E   E      H        E   E      E   E   H         
D#||------||--------------------|-------------------|--------------------|
A#||------||---14--------L------|--14--------L------|--15--17--18--------|
F#||------||*-------------------|-------------------|--------------------|
C#||--14--||*---------------14--|---------------14--|--------------------|
G#||------||--------------------|-------------------|--------------------|
D#||------||--------------------|-------------------|--------------------|


  H        E   E      H.               H         Q         H.            
------------------|----------------|-------------------|----------------|
--L--------L------|--14------------|--14--------15s----|--12------------|
------------------|----------------|-------------------|----------------|
--------------14--|----------------|-------------------|----------------|
------------------|----------------|-------------------|----------------|
------------------|----------------|-------------------|----------------|


  H        E   E      H.               H         Q        H            Q     
------------------|----------------|------------------|---------------------|
--L--------L------|--14------------|--14--------------|---------------------|
------------------|----------------|------------------|------------13g14----|
--------------14--|----------------|------------14----|--16-----------------|
------------------|----------------|------------------|---------------------|
------------------|----------------|------------------|---------------------|


                                                        ________________
                                                       |1.
                                          Da Coda      |               
   H        E   E      H         Q        H.               H.            
-------------------|------------------|----------------|----------------|
-------------------|--14--------15----|----------------|----------------|
-------------------|------------------|--16------------|--14------------|
--16--------L--14--|------------------|----------------|----------------|
-------------------|------------------|----------------|----------------|
-------------------|------------------|----------------|----------------|


________________  _________________________________
                ||2.
                ||                                      Bridge             
  H.                 H.              H        Q         H.            
----------------||----------------|----------------||--17------------|
----------------||----------------|----------------||--17------------|
--L------------*||--14------------|--L-------------||----------------|
---------------*||----------------|----------------||----------------|
----------------||----------------|----------------||----------------|
----------------||----------------|----------------||----------------|


   H         Q        H.               H.               H.            
--17--------17----|--17------------|---L------------|--17------------|
--17--------17----|--17------------|---L------------|--17------------|
------------------|----------------|----------------|----------------|
------------------|----------------|----------------|----------------|
------------------|----------------|----------------|----------------|
------------------|----------------|----------------|----------------|


   H.               H         E   E      Q     Q     Q        H.            
--17------------|--17---------L------|--17----17----17----|--17------------|
--17------------|--17---------L------|--17----17----17----|--17------------|
----------------|----------------14--|--------------------|----------------|
----------------|--------------------|--------------------|----------------|
----------------|--------------------|--------------------|----------------|
----------------|--------------------|--------------------|----------------|


   H.               H.               Q     Q     Q        Q     Q      E   E   
--17------------|--17------------|--------------------|-----------------------|
--17------------|--17------------|--14----14----14----|--15-------------------|
----------------|----------------|--------------------|--------11~----11s--9--|
----------------|----------------|--------------------|--------12-------------|
----------------|----------------|--------------------|-----------------------|
----------------|----------------|--------------------|-----------------------|


                                                            D.S. al Coda           

    
  E  E  E  E  E  E     E  E  E  E  E  E     H.              H        E   E   
-----0-----0-----0--|-----0-----0-----0--|---------------|------------------||
--------------------|--------------------|---------------|------------------||
--9-----9-----9-----|--9-----9-----9-----|--9------------|--L--------L------||
--------------------|--------------------|---------------|--------------14--||
--------------------|--------------------|---------------|------------------||
--------------------|--------------------|---------------|------------------||


   CODA                              O                                 
   H.              H        Q        H.               H        E   E   
----------------|----------------|----------------|-------------------|
----------------|----------------|----------------|-------------------|
--14------------|--L-------------|--11------------|--14--------L------|
----------------|----------------|----------------|---------------14--|
----------------|----------------|----------------|-------------------|
----------------|----------------|----------------|-------------------|


   E   E   H            H.               H         Q        H.            
--------------------|----------------|------------------|--17------------|
--14--12------------|--14------------|--15--------17----|----------------|
----------14--------|----------------|------------------|----------------|
--------------------|----------------|------------------|----------------|
--------------------|----------------|------------------|----------------|
--------------------|----------------|------------------|----------------|


   H         Q        H.              H.             
------------------|----------------|---------------||
------------------|----------------|---------------||
------------------|----------------|---------------||
--14--------14----|--14------------|--L------------||
------------------|----------------|---------------||
------------------|----------------|---------------||



Viola - Hamiltone

               Main Theme
               SIGNO                                                    
      E        E    E   E    E  E   E      E    E   E    E  E   E   
D#||-----||----------------------------|---------------------------|
A#||-----||----------------------------|---------------------------|
F#||-----||*---------------------------|---------------------------|
C#||-----||*--14p--11--14p--11--9--11--|--14p--11--14p--11--9--11--|
G#||-----||----------------------------|---------------------------|
D#||-----||----------------------------|---------------------------|


   E    E   E    E   E    E      E    E   E    E   E    E   
-----------------------------|-----------------------------|
-----------------------------|-----------------------------|
-----------------------------|-----------------------------|
--12p--11--14p--12--15p--14--|--19p--15--12h--14--11h--12--|
-----------------------------|-----------------------------|
-----------------------------|-----------------------------|


   E    E   E    E  E   E      E    E   E    E  E    E      H.            
---------------------------|----------------------------|----------------|
---------------------------|----------------------------|----------------|
---------------------------|----------------------------|----------------|
--14p--11--14p--11--9--11--|--14p--11--14p--11--9h--11--|--12------------|
---------------------------|----------------------------|----------------|
---------------------------|----------------------------|----------------|


  H.               E    E   E    E  E    E      E    E   E    E  E    E   
---------------|----------------------------|----------------------------|
---------------|----------------------------|----------------------------|
---------------|----------------------------|----------------------------|
--L------------|--14p--11--14p--11--9h--11--|--14p--11--14p--11--9h--11--|
---------------|----------------------------|----------------------------|
---------------|----------------------------|----------------------------|


                                                     Da Coda             
  Q    Q    Q       H        Q       H.              H        Q     
-----------------|----------------|---------------|----------------|
-----------------|----------------|---------------|--7--------9----|
-------7---------|-----------7----|--9------------|----------------|
--7--------------|--7-------------|---------------|----------------|
------------9----|----------------|---------------|----------------|
-----------------|----------------|---------------|----------------|


 _______________________________  ________________________________
| 1.                            ||2.
|                                                                
  H.              H.                H.              H        Q     
---------------|----------------||---------------|----------------||
---------------|----------------||---------------|----------------||
--6------------|--L------------*||--6------------|--L-------------||
---------------|---------------*||---------------|----------------||
---------------|----------------||---------------|----------------||
---------------|----------------||---------------|----------------||


   Bridge                                                                  
   H.               H        E   E      H.              H.            
----------------|-------------------|----------------|---------------|
----------------|--12--------L--14--|----------------|---------------|
--14------------|-------------------|----------------|---------------|
----------------|-------------------|--14------------|--L------------|
----------------|-------------------|----------------|---------------|
----------------|-------------------|----------------|---------------|


   H.               H        E   E      H.              H.            
----------------|-------------------|----------------|---------------|
----------------|--12--------L------|--14------------|--L------------|
--14------------|-------------------|----------------|---------------|
----------------|---------------14--|----------------|---------------|
----------------|-------------------|----------------|---------------|
----------------|-------------------|----------------|---------------|


   H.               H        E   E      E    E   H           H.            
----------------|-------------------|---------------------|---------------|
----------------|--12--------L------|--14p--12------------|---------------|
--14------------|-------------------|-----------14--------|--L------------|
----------------|---------------14--|---------------------|---------------|
----------------|-------------------|---------------------|---------------|
----------------|-------------------|---------------------|---------------|


   H.               H         Q        Q     Q     Q        H.            
----------------|------------------|--------------------|----------------|
----------------|------------12----|--17----17----17----|--17------------|
--11------------|--14--------------|--------------------|----------------|
----------------|------------------|--------------------|----------------|
----------------|------------------|--------------------|----------------|
----------------|------------------|--------------------|----------------|


  D.S. al Coda      CODA                              Outro             
  H.                H.              H.                H.            
---------------||----------------|---------------||----------------|
--L------------||----------------|---------------||----------------|
---------------||--14------------|--L------------||----------------|
---------------||----------------|---------------||----------------|
---------------||----------------|---------------||--12------------|
---------------||----------------|---------------||----------------|


   H.               H        E   E      H.               H.            
----------------|-------------------|----------------|----------------|
----------------|-------------------|----------------|----------------|
----------------|-------------------|----------------|--16------------|
----------------|--14--------L--14--|--14------------|----------------|
--12------------|-------------------|----------------|----------------|
----------------|-------------------|----------------|----------------|


  H.               H         Q        H.              H.             
---------------|------------------|----------------|---------------||
---------------|------------------|----------------|---------------||
--L------------|------------------|----------------|---------------||
---------------|------------------|----------------|---------------||
---------------|--16--------16----|--16------------|--L------------||
---------------|------------------|----------------|---------------||



Cello - Epiphone Emperor

             Main Theme
             SIGNO                                                                 
      E      Q    Q.     E     Q    Q.     E     H.              H.            
D#||-----||-----------------|-----------------|---------------|---------------|
A#||-----||-----------------|-----------------|---------------|---------------|
F#||-----||*----------------|-----------------|---------------|---------------|
C#||-----||*----------------|-----------------|---------------|---------------|
G#||-----||-------7------7--|--0----7------7--|---------------|---------------|
D#||-----||--5--------------|-----------------|--1------------|--L------------|
A#||-----||-----------------|-----------------|---------------|---------------|


  Q    Q.     E     Q    Q.     E     Q.     E  E  E     S S E  E  E  E  E   
-----------------|-----------------|------------------|---------------------|
-----------------|-----------------|------------------|---------------------|
-----------------|-----------------|------------------|---------------------|
-----------------|-----------------|---------3--2-----|---------------------|
-------7------7--|-------7------7--|---------------5--|--4-5-7--8--7--5--7--|
--5--------------|--5--------------|--1---------------|---------------------|
-----------------|-----------------|------------------|---------------------|


  Q    Q.     E     Q    Q.     E     H.              E  E  E  E  E  E   
-----------------|-----------------|---------------|--------------------|
-----------------|-----------------|---------------|--------------------|
-----------------|-----------------|---------------|--------------------|
-----------------|-----------------|---------------|--------------------|
-------7------7--|-------7---------|---------------|--------------------|
--5--------------|--5-----------5--|---------------|--------------5--7--|
-----------------|-----------------|--3------------|--L--3--5--7--------|

                                _________________________________
                               |1.                               |
                  Da Coda      |                                 |  
  H.              H.              H.              H        Q       
---------------|---------------|---------------|-----------------||
---------------|---------------|---------------|-----------------||
---------------|---------------|---------------|----------------*||
---------------|---------------|---------------|-----------------||
---------------|---------------|---------------|----------------*||
--5------------|---------------|--5------------|-----------------||
---------------|--5------------|---------------|--6--------5-----||

 _______________________________
|2.                              
                                    Bridge                             
  H.              H        Q        H.              H.            
---------------|----------------||---------------|---------------|
---------------|----------------||---------------|---------------|
---------------|----------------||---------------|---------------|
---------------|----------------||---------------|---------------|
---------------|----------------||---------------|---------------|
--5------------|--L-------------||---------------|---------------|
---------------|-----------2----||--3------------|--L------------|


  H.              H        Q       H.              H.            
---------------|----------------|---------------|---------------|
---------------|----------------|---------------|---------------|
---------------|----------------|---------------|---------------|
---------------|----------------|---------------|---------------|
---------------|----------------|---------------|---------------|
--5------------|--L-------------|---------------|---------------|
---------------|-----------2----|--3------------|--L------------|


  H.              H        Q       H.              H.            
---------------|----------------|---------------|---------------|
---------------|----------------|---------------|---------------|
---------------|----------------|---------------|---------------|
---------------|----------------|---------------|---------------|
---------------|----------------|---------------|---------------|
--5------------|--L-------------|---------------|---------------|
---------------|-----------2----|--3------------|--L------------|


  Q    Q    Q       Q    Q    Q       Q    Q    Q       Q    Q    Q     
-----------------|-----------------|-----------------|-----------------|
-----------------|-----------------|-----------------|-----------------|
-----------------|-----------------|-----------------|-----------------|
-----------------|-----------------|-----------------|-----------------|
-------7---------|-----------------|-------5----9----|--7----7----7----|
--5---------5----|------------5----|--7--------------|-----------------|
-----------------|--5----7---------|-----------------|-----------------|


                                    D.S. al Coda     CODA             
  Q    Q    Q       H.              H.               H.            
-----------------|---------------|---------------||---------------|
-----------------|---------------|---------------||---------------|
-----------------|---------------|---------------||---------------|
-----------------|---------------|---------------||---------------|
--7----7----7----|--7------------|--L------------||---------------|
-----------------|---------------|---------------||--5------------|
-----------------|---------------|---------------||---------------|


                    Outro                                             
  H        Q        H.              H.              H.            
----------------||---------------|---------------|---------------|
----------------||---------------|---------------|---------------|
----------------||---------------|---------------|---------------|
----------------||---------------|---------------|---------------|
----------------||---------------|---------------|---------------|
--L-------------||---------------|---------------|--5------------|
-----------2----||--3------------|--3------------|---------------|


  H.              H.              H.              H        Q     
---------------|---------------|---------------|----------------|
---------------|---------------|---------------|----------------|
---------------|---------------|---------------|----------------|
---------------|---------------|---------------|----------------|
---------------|---------------|---------------|----------------|
--L------------|--1------------|--L------------|--5--------5----|
---------------|---------------|---------------|----------------|


  H.              H.             
---------------|---------------||
---------------|---------------||
---------------|---------------||
---------------|---------------||
---------------|---------------||
--5------------|--L------------||
---------------|---------------||



Duration Legend
---------------
W - whole
H - half
Q - quarter
E - 8th
S - 16th
. - note dotted


Tablature Legend
----------------
L - tied note
g - grace note
h - hammer on
p - pull off
s - legato slide
Добавлено: 16.09.2013
Другие материалы по этой песне:

Страница создана 29.07.2013
http://primanota.ru/chris-duarte/duarte-e-ezell-chords.htm
Привет, Гость.
Предлагаем пройти революционный курс по гитаре.
Подарок от PrimaNota.Ru, забирай!