PrimaNota.ru - самый крупный в мире бесплатный архив песенных текстов, аккордов, табулатур и нот


Chris De Burgh - Footsteps - таба, видео

Регистрация Запомнить меня
Войти через:  Facebook Google Twitter Vk Yandex Mail.ru

Chris De Burgh - Footsteps - таба, видео

Печатать
Просмотров: 124
Chris de Burgh - Footsteps
From the albums: Footsteps (2008)
Comment for any corrections and please rate

| ~  Vibrato
| /  Slide Up
| \  Slide Down
| h  Hammer-on
| p  Pull-off
| b  Bend

e|---------------------------------------------------------------------------|
B|-/10-12-15-14-14---14-15-14-12-12------------------------------------------|
G|----------------------------------14-13-14\11~-----------------------------|
D|---------------------------------------------------------------------------|
A|---------------------------------------------------------------------------|
E|---------------------------------------------------------------------------|

e|---------------------------------------------------------------------------|
B|-10-12-14-17-15-15---15-14-12-14-15-14-15-12~------------------------------|
G|---------------------------------------------------------------------------|
D|---------------------------------------------------------------------------|
A|---------------------------------------------------------------------------|
E|---------------------------------------------------------------------------|

e|---------------------------------------------------------------------------|
B|--------12-15-14-14---14-15-14-12-12---------------------------------------|
G|-/13-14------------------------------14-13-14\11~--------------------------|
D|---------------------------------------------------------------------------|
A|---------------------------------------------------------------------------|
E|---------------------------------------------------------------------------|

e|---------------------------------------------------------------------------|
B|-10-12-14-17-15-15---15-14-12-14-15-14-15-14-12~---------------------------|
G|---------------------------------------------------------------------------|
D|---------------------------------------------------------------------------|
A|---------------------------------------------------------------------------|
E|---------------------------------------------------------------------------|

e|---------------------------------------------------------------------------|
B|---------12-14b-14~~---15/17-19-17-15-14-17-15-15---15-14-12-14-15\--------|
G|-13-14~--------------------------------------------------------------------|
D|---------------------------------------------------------------------------|
A|---------------------------------------------------------------------------|
E|---------------------------------------------------------------------------|

e|---------------------------------------------------------------------------|
B|-12---------12-14-15-14-12-------------------------------------------------|
G|----14~--14----------------14~--13-14-14b-13-11-13-14-13-11--9-------------|
D|---------------------------------------------------------------12-12~------|
A|---------------------------------------------------------------------------|
E|---------------------------------------------------------------------------|

e|---------------------------------------------14-14-17-17-------------------|
B|-----------------14-15-14-12-12~-------15-15-------------------------------|
G|---------------------------------14-14-------------------------------------|
D|-12-11-9-11-12-------------------------------------------------------------|
A|---------------------------------------------------------------------------|
E|---------------------------------------------------------------------------|
Добавлено: 10.05.2015
Другие материалы по этой песне:
  • Аккорды и текст

Страница создана 10.05.2015
http://primanota.ru/chris-de-burgh/footsteps-chords.htm
Привет, Гость.
Предлагаем пройти революционный курс по гитаре.
Подарок от PrimaNota.Ru, забирай!