PrimaNota.ru - самый крупный в мире бесплатный архив песенных текстов, аккордов, табулатур и нот


Chris Cayzer - Someday Well Know - таба, видео

Регистрация Запомнить меня
Войти через:  Facebook Google Twitter Vk Yandex Mail.ru

Chris Cayzer - Someday Well Know - таба, видео

Печатать
Просмотров: 111
Someday we'll know
(Chris Cayzer cover)

Tuning: Standard Tuning (EADGBe) + "CAPO 1"

* Tab is relative to the capo. If you want to play it in standard just add 1 to the all 

numbers. Too lazy to make a standard version. Sorry

this version basically is just a whole step up from the original version plus the solo 

and riffs

Chords used 


|--0--|--1--|--1--|--3--|--3--|--3--|
|--1--|--3--|--1--|--3--|--5--|--5--|
|--2--|--2--|--3--|--3--|--5--|--3--|
|--2--|--0--|--3--|--5--|--5--|--5--|
|--0--|-----|--1--|--5--|--3--|--3--|
|-----|-----|-----|--3--|-----|-----|

   Am   Dm    Bb9    Gm    C   CM+7(?)

Intro Am-Dm Bb9

Am     Dm    Bb9
Ninety miles outside Chicago
Am        Dm          Bb9             
Can't stop driving, I don't know why
Am           Dm          Bb9
A million questions, I need an answer
Gm                                    C - CM+7
Two years later, you're still on my mind

(Am-Dm Bb9)
Whatever happened to Amelia Arehart
Who holds the stars up in the sky
Is true love just once in a lifetime

Gm                                C - CM+7
Did the captain of the Titanic cry

Am             Dm       Bb9
Someday we'll know if love can move a mountain
Am             Dm   Bb9                     
Someday we'll know why the sky is blue
Am             Dm   Bb9                     C  --  CM+7
Someday we'll know why I wasn't meant for you

(Am-Dm Bb9)
Does anybody know the way to Atlantis
Or what the wind says when she cries
I'm speeding by the place that I met you
                                  C -- CM+7  
For the ninety seventh time tonight

riff at ~1:28

"CM+7 hammer-ons"

|--3---3-3-3--3---3-----|
|--5---5-5-5--3h5-3h5---|
|--3---3-3-3--3---3-----|
|--5---5-5-5--5---5-----|
|--3---3-3-3--3---3-----|
|-----------------------|


(Am-Dm Bb9)
Someday we'll know if love can move a mountain
Someday we'll know why the sky is blue
Someday we'll know why I wasn't meant for you

C
Yeah, yeah, yeah, yeah


(Am-Dm Bb9)
Someday we'll know why Samson loved Delilah
Someday I'll    go   dancing on the moon
                                                C - CM+7 (CM+7 riff)
Someday you'll know that I was the one for you


Am  Dm Bb9


solo at ~2:00

|---3-3-3-33-1---------------------------|
|---------------3--1-3--1-3~-------------|
|----------------------------------------|
|----------------------------------------|
|----------------------------------------|
|----------------------------------------|



|-------------------------------------|
|----1---1-----------------1h3~-1-----|
|--2----2---2-0-0h2---0-2-------------|
|-------------------------------------|
|-------------------------------------|
|-------------------------------------|


|----------------------------------------------|
|----------------------------------------------|
|-5-5h7p5-5h7p5-5h7p5-5h7p5-5h7p5-5h7p5-5h7p5--|
|----------------------------------------------|
|----------------------------------------------|
|----------------------------------------------|


|----------------------------------------|
|--------------6--66~-6/8~-8/10-8~-6~----|
|-5--7--7-5--7---------------------------|
|----------------------------------------|
|----------------------------------------|
|----------------------------------------|




    Am    Dm  Bb9
Oh, my love, oh.....

(Am-Dm Bb9)
I bought a ticket to the end of the rainbow
I watched the stars crash in the sea
If I could ask God just one question

Gm                              C  --  CM+7
Why aren't you here with me tonight


(Am-Dm Bb9)
Someday we'll know if love can move a mountain
Someday we'll know why the sky is blue
Someday we'll know why I wasn't meant for you 

C - CM+ 7
Yeah, yeah, yeah, yeah

Someday we'll know why Samson loved Delilah
Someday I'll go dancing on the moon
Someday you'll know that I was the one for you C - CM+ 7

fade out to 
Am-Dm Bb9

fade out riff
a bit faint. listen for it.
|-------------------------------------------|
|--6-----------------------------------8~-6-|
|---7--5------5-5h7-2-0--------5-5h7-5------|
|-------7-----------------------------------|
|-------------------------------------------|
|-------------------------------------------|
Добавлено: 08.09.2013
Вам также может быть интересно:
Другие материалы по этой песне:
  • Аккорды и текст

Страница создана 08.09.2013
http://primanota.ru/chris-cayzer/someday-well-know-chords.htm
Привет, Гость.
Предлагаем пройти революционный курс по гитаре.
Подарок от PrimaNota.Ru, забирай!