PrimaNota.ru - самый крупный в мире бесплатный архив песенных текстов, аккордов, табулатур и нот


Chris Brown Tyga - Ayo - таба, видео

Регистрация Запомнить меня
Войти через:  Facebook Google Twitter Vk Yandex Mail.ru

Chris Brown Tyga - Ayo - таба, видео

Печатать
Просмотров: 64
-------------------------------------------------------------------------------
                             Ayo - Chris Brown & Tyga
-------------------------------------------------------------------------------
Tabbed by: Bryan O.

Tuning: Standard

e|------2-1----------2-1-----------------------------------------------------|
B|----------2------------2---------------------------------------------------|
G|---3---------------------1---3---------------------------------------------|
D|------------3-4-4----------4-----------------------------------------------|
A|---------------------------------------------------------------------------|
E|---------------------------------------------------------------------------|

Bass/2nd Guitar

G|---------------------------------------------------------------|
D|---1---------------------1-------------------------------------|
A|-------1--2----------4-----------------------------------------|
E|---------------------------------------------------------------|


************************************

| /   slide up
| \   slide down
| h   hammer-on
| p   pull-off
| ~   vibrato
| +   harmonic
| x   Mute note
| b   Bend
| pb  Pre-bend
| br  Bend release
| pbr Pre-bend release
| brb Bend release bend

************************************
Добавлено: 02.01.2016
Другие материалы по этой песне:
  • Аккорды и текст

Страница создана 02.01.2016
http://primanota.ru/chris-brown-tyga/ayo-chords.htm
Привет, Гость.
Предлагаем пройти революционный курс по гитаре.
Подарок от PrimaNota.Ru, забирай!