PrimaNota.ru - самый крупный в мире бесплатный архив песенных текстов, аккордов, табулатур и нот


Chris Broderick - Caprice No7 Op 20 - таба, видео

Регистрация Запомнить меня
Войти через:  Facebook Google Twitter Vk Yandex Mail.ru

Chris Broderick - Caprice No7 Op 20 - таба, видео

Печатать
Просмотров: 108
Уроки эстрадного вокала в Санкт-Петербурге
E|------0---|-0---2--4--5--7--|-9---9-------|--------7--9--10-|-12--12--12--|-12--11--11--|
B|----------|-----------------|---------9---|-9---10----------|-------------|-------------|
G|----------|-----------------|-------------|-----------------|---------9---|-9---8---8---|
D|----------|-----------------|-------------|-----------------|---------11--|-11--10--10--|
A|----------|-0------------0--|-------------|-0------------0--|-------------|-------------|
E|----------|-----------------|-------------|-----------------|-------------|-------------|


E|-10--9---8---|------------------|--------------7--|-9---9-------|--------7--9--10-|
B|-------------|----------5----5--|-----7--9--10----|---------9---|-9---10----------|
G|-7---6---5---|-------4----------|-4---------------|-------------|-----------------|
D|-9---8---7---|----6-------------|-----------------|-------------|-----------------|
A|-------------|-7----------------|-0------------0--|-------------|-0------------0--|
E|-------------|------------------|-----------------|-------------|-----------------|


E|-12--12--12--|-10--9---8---|-12--12--12--|-10--9---8---|-9---9---9---|-7---9---10--|
B|-------------|-10--10--10--|-9---9---9---|-7---7---7---|-------------|-7-------7---|
G|---------9---|-10--10--10--|-9---9---9---|-5---5---5---|-9---9---9---|-7-------7---|
D|-------------|-------------|-------------|-------------|-9---9---9---|-------------|
A|-------------|-------------|-------------|-------------|-------------|-0-------0---|
E|-------------|-------------|-------------|-------------|-------------|-------------|


E|-------------|-------------|----------|------0---|-0---2--4--5--7--|-9---9-------|
B|-----10--10--|-----9---9---|-10-------|----------|-----------------|---------9---|
G|-----9---9---|-----7---7---|------9---|----------|-----------------|-------------|
D|-----11--11--|-----9---9---|----------|----------|-----------------|-------------|
A|-------------|-------------|-0--------|-0--------|-0------------0--|-------------|
E|-0-------0---|-0-------0---|----------|----------|-----------------|-------------|


E|--------7--9--10-|-12--12--12--|-12--11--11--|-10--9---8---|------------------|--------------7--|
B|-9---10----------|-------------|-------------|-------------|----------5----5--|-----7--9--10----|
G|-----------------|---------9---|-9---8---8---|-7---6---5---|-------4----------|-4---------------|
D|-----------------|---------11--|-11--10--10--|-9---8---7---|----6-------------|-----------------|
A|-0------------0--|-------------|-------------|-------------|-7----------------|-0------------0--|
E|-----------------|-------------|-------------|-------------|------------------|-----------------|


E|-9---9-------|--------7--9--10-|-12--12--12--|-10--9---8---|-12--12--12--|-10--9---8---|
B|---------9---|-9---10----------|-------------|-10--10--10--|-9---9---9---|-7---7---7---|
G|-------------|-----------------|---------9---|-10--10--10--|-9---9---9---|-5---5---5---|
D|-------------|-----------------|-------------|-------------|-------------|-------------|
A|-------------|-0------------0--|-------------|-------------|-------------|-------------|
E|-------------|-----------------|-------------|-------------|-------------|-------------|


E|-9---9---9---|-7---9---10--|-------------|-------------|----------|-------------------|
B|-------------|-7-------7---|-----10--10--|-----9---9---|-10-------|-------------------|
G|-9---9---9---|-7-------7---|-----9---9---|-----7---7---|------9---|-------------------|
D|-9---9---9---|-------------|-----11--11--|-----9---9---|----------|-6-----------------|
A|-------------|-0-------0---|-------------|-------------|-0--------|----7--5-----------|
E|-------------|-------------|-0-------0---|-0-------0---|----------|----------7--4--0--|


E|----------------0--|-5--9--12-9-----9--|-10-7--------------|-------------------|
B|-------------2-----|-------------10----|-------9--------9--|----9-----9-----9--|
G|----------2--------|-------------------|----------9--10-9--|-9--9--8--9--7--9--|
D|-------2-----------|-------------------|-------------------|-------------------|
A|-0--4--------------|-------------------|-------------------|-------------------|
E|-------------------|-------------------|-0--------------0--|-------------------|


E|----------|-10-7--------------|-------------------|----------------0--|-5--9--12-9-----9--|
B|-10-------|-------9-----------|-------------------|-------------2-----|-------------10----|
G|------9---|----------9--7-----|-------------------|----------2--------|-------------------|
D|----------|----------------9--|-6-----------------|-------2-----------|-------------------|
A|-0--------|-------------------|----7--5-----------|-0--4--------------|-------------------|
E|----------|-------------------|----------7--4--0--|-------------------|-------------------|


E|-10-7--------------|-------------------|------10--|-10---10--|-10---10--|-10--9---7---|
B|-------9--------9--|----9-----9-----9--|-10-------|----------|----------|-------------|
G|----------9--10-9--|-9--9--8--9--7--9--|----------|-7----7---|-7----7---|-7---6---4---|
D|-------------------|-------------------|------12--|-0----0---|-0----0---|-------------|
A|-------------------|-------------------|-0--------|----------|----------|-5---4---2---|
E|-0--------------0--|-------------------|------10--|----------|----------|-------------|


E|-5--------|-------------|-------------|-2---0-------|------10--|-10---10--|-10---10--|
B|-2----3---|-3---2---5---|-5---3---7---|---------3---|-2--------|----------|----------|
G|-2----2---|-2---2---2---|-2---2---2---|-2---2---1---|------7---|-7----7---|-7----7---|
D|------4---|-4---5---5---|-5---4---0---|-0-----------|------0---|-0----0---|-0----0---|
A|-0--------|-------------|-------------|-----4---2---|-0----0---|----------|----------|
E|----------|-------------|-------------|-------------|----------|----------|----------|


E|-10--9---7---|-5----5---|-6---5---4---|-5---5---5---|-3---2---1---|-2---2---2---|
B|-------------|-2--------|-3---3---3---|-2---2---2---|-0---0---0---|-------------|
G|-7---6---4---|-2--------|-3---3---3---|-2---2---2---|-0---0---0---|-3---3---3---|
D|-------------|------7---|-------------|-------------|-------------|-4---4---4---|
A|-5---4---2---|-0--------|-------------|-------------|-------------|-------------|
E|-------------|----------|-------------|-------------|-------------|-------------|


E|-0---2---3---|-------------|-------------|------2---|----------2--0---|----------0------|
B|-------------|-----3---3---|-----2---2---|-3--------|-------2---------|-------------3---|
G|-------------|-----2---2---|-----2---2---|----------|----0------------|-------2---------|
D|-------------|-----4---4---|-----2---2---|----------|-0---------------|-0--4------------|
A|-------------|-0-----------|-0-----------|-0--------|-----------------|-----------------|
E|-3-------3---|-------------|-------------|----------|-----------------|-----------------|


E|-----------------|-------------2--5--|----------2--0---|----------0------|-------------|
B|----------3--2---|----------3--------|-------2---------|-------------3---|-----2---2---|
G|-------0---------|-------2-----------|----0------------|-------2---------|-----0---0---|
D|----2------------|-0--4--------------|-0---------------|-0--4------------|-----2---2---|
A|-0---------------|-------------------|-----------------|-----------------|-0-----------|
E|-----------------|-------------------|-----------------|-----------------|-------------|


E|------2---|----------2--0---|----------0------|-----------------|-------------2--5--|
B|-3--------|-------2---------|-------------3---|----------3--2---|----------3--------|
G|----------|----0------------|-------2---------|-------0---------|-------2-----------|
D|----------|-0---------------|-0--4------------|----2------------|-0--4--------------|
A|-0----0---|-----------------|-----------------|-0---------------|-------------------|
E|----------|-----------------|-----------------|-----------------|-------------------|


E|----------2--0---|----------0------|-------------|----------|------0---|-0---2--4--5--7--|
B|-------2---------|-------------3---|-----2---2---|-10-------|----------|-----------------|
G|----0------------|-------2---------|-----0---0---|------9---|----------|-----------------|
D|-0---------------|-0--4------------|-----2---2---|----------|----------|-----------------|
A|-----------------|-----------------|-0-------0---|-0--------|-0--------|-0------------0--|
E|-----------------|-----------------|-------------|----------|----------|-----------------|


E|-9---9-------|--------7--9--10-|-12--12--12--|-12--11--11--|-10--9---8---|------------------|
B|---------9---|-9---10----------|-------------|-------------|-------------|----------5----5--|
G|-------------|-----------------|---------9---|-9---8---8---|-7---6---5---|-------4----------|
D|-------------|-----------------|---------11--|-11--10--10--|-9---8---7---|----6-------------|
A|-------------|-0------------0--|-------------|-------------|-------------|-7----------------|
E|-------------|-----------------|-------------|-------------|-------------|------------------|


E|--------------7--|-9---9-------|--------7--9--10-|-12--12--12--|-10--9---8---|-12--12--12--|
B|-----7--9--10----|---------9---|-9---10----------|-------------|-10--10--10--|-9---9---9---|
G|-4---------------|-------------|-----------------|---------9---|-10--10--10--|-9---9---9---|
D|-----------------|-------------|-----------------|-------------|-------------|-------------|
A|-0------------0--|-------------|-0------------0--|-------------|-------------|-------------|
E|-----------------|-------------|-----------------|-------------|-------------|-------------|


E|-10--9---8---|-9---9---9---|-7---9---10--|-------------|-------------|----------|
B|-7---7---7---|-------------|-7-------7---|-----10--10--|-----9---9---|-10-------|
G|-5---5---5---|-9---9---9---|-7-------7---|-----9---9---|-----7---7---|------9---|
D|-------------|-9---9---9---|-------------|-----11--11--|-----9---9---|----------|
A|-------------|-------------|-0-------0---|-------------|-------------|-0--------|
E|-------------|-------------|-------------|-0-------0---|-0-------0---|----------|


E|-------------------|----------------0--|-5--9--12-9-----9--|-10-7--------------|
B|-------------------|-------------2-----|-------------10----|-------9--------9--|
G|-------------------|----------2--------|-------------------|----------9--10-9--|
D|-6-----------------|-------2-----------|-------------------|-------------------|
A|----7--5-----------|-0--4--------------|-------------------|-------------------|
E|----------7--4--0--|-------------------|-------------------|-0--------------0--|


E|-------------------|-------------|------|------|
B|----9-----9-----9--|-----10--9---|-10---|-10---|
G|-9--9--8--9--7--9--|-----9---7---|------|------|
D|-------------------|-------------|-7----|------|
A|-------------------|-0-----------|-0----|------|
E|-------------------|---------0---|------|------|
Добавлено: 12.07.2012
Вам также может быть интересно:
Другие материалы по этой песне:

Страница создана 11.07.2012
http://primanota.ru/chris-broderick/caprice-no7-op-20-chords.htm
Привет, Гость.
Предлагаем пройти революционный курс по гитаре.
Подарок от PrimaNota.Ru, забирай!