PrimaNota.ru - самый крупный в мире бесплатный архив песенных текстов, аккордов, табулатур и нот


Chris Broderick - Betcha Cant Play This - таба, видео

Регистрация Запомнить меня
Войти через:  Facebook Google Twitter Vk Yandex Mail.ru

Chris Broderick - Betcha Cant Play This - таба, видео

Печатать
Просмотров: 228
                                  Betcha Can't Play This


                                     Chris Broderick

A bit difficult to read, but couldn't do it any more tidy than this.
I've written in which hand to use for each note, which notes to tap and which notes to 
on/pull off or slide from.

For the idiots:

L - Left Hand
R - Right Hand
T - Tap
h - Hammer on
p - Pull off
/// - Slide

Have fun ;D




     L  L L  R  R   R  L L   L  R  R   R      R   R   R  R  L  L  L  R   R  R L L   
     T    T  T  T      T T      T  T                     T  T     T  T      T T T   

E||-------------------------------12h-15h-|--20p-15p-12----------------------------|
B||----------------------------13---------|-------------13-------------------------|
G||----------------------9h-12------------|----------------12p-9-------------------|
D||-------------------10------------------|----------------------10----------------|
A||---------------------------------------|----------------------------------------|
E||-------3----12h-15---------------------|-------------------------15p-12----3----|
B||--1h-5---13----------------------------|--------------------------------13---5p-|


     L L  R  R   R L L   L  R  R   R      R   R   R  R  L  L L  R   R  R L L   
       T  T  T     T T      T  T                     T  T    T  T      T T T   

------------------------------11h-14h-|--19p-14p-11---------------------------|
---------------------------12---------|-------------12------------------------|
---------------------8h-11------------|----------------11p-8------------------|
-------------------9------------------|----------------------9----------------|
--------------------------------------|---------------------------------------|
-------2----11h-14--------------------|------------------------14p-11----2----|
--0h-4---12---------------------------|-------------------------------12---4S-|


     L L  R  R   R  L  L   L  R  R   R      R   R   R  R  L   L  L  R   R  R L L   
       T  T  T      T  T      T  T                     T  T      T  T      T T T   

--------------------------------15h-19h-|--24p-19p-15-----------------------------|
-----------------------------17---------|-------------17--------------------------|
----------------------12h-16------------|----------------16p-12-------------------|
-------------------14-------------------|-----------------------14----------------|
----------------------------------------|-----------------------------------------|
-------7----15h-19----------------------|--------------------------19p-15----7----|
--5h-8---17-----------------------------|---------------------------------17---8p-|


  L  L L  R  R   R  L  L   L  R  R   R      R   R   R  R  L   L  L  R   R  R L L  
       T  T  T      T  T      T  T                     T  T      T  T      T T T  

--------------------------------15h-19h-|--24p-19p-15----------------------------|
-----------------------------17---------|-------------17-------------------------|
----------------------12h-16------------|----------------16p-12------------------|
-------------------14-------------------|-----------------------14---------------|
----------------------------------------|----------------------------------------|
-------7----15h-19----------------------|--------------------------19p-15----7---|
--5h-8---17-----------------------------|---------------------------------17---8-|


  L  L L  R  R   R  L L   L  R  R   R      R   R   R  R  L  L  L  R   R  R L L   
  T    T  T  T      T T      T  T                     T  T     T  T      T T T   

-------------------------------12h-15h-|--20p-15p-12----------------------------|
----------------------------13---------|-------------13-------------------------|
----------------------9h-12------------|----------------12p-9-------------------|
-------------------10------------------|----------------------10----------------|
---------------------------------------|----------------------------------------|
-------3----12h-15---------------------|-------------------------15p-12----3----|
--1h-5---13----------------------------|--------------------------------13---5p-|


     L L  R  R   R L L   L  R  R   R      R   R   R  R  L  L L  R   R  R L L   
       T  T  T     T T      T  T                     T  T    T  T      T T T   

------------------------------11h-14h-|--19p-14p-11---------------------------|
---------------------------12---------|-------------12------------------------|
---------------------8h-11------------|----------------11p-8------------------|
-------------------9------------------|----------------------9----------------|
--------------------------------------|---------------------------------------|
-------2----11h-14--------------------|------------------------14p-11----2----|
--0h-4---12---------------------------|-------------------------------12---4S-|


     L L  R  R   R  L  L   L  R  R   R      R   R   R  R  L   L  L  R   R  R L L   
       T  T  T      T  T      T  T                     T  T      T  T      T T T   

--------------------------------15h-19h-|--24p-19p-15-----------------------------|
-----------------------------17---------|-------------17--------------------------|
----------------------12h-16------------|----------------16p-12-------------------|
-------------------14-------------------|-----------------------14----------------|
----------------------------------------|-----------------------------------------|
-------7----15h-19----------------------|--------------------------19p-15----7----|
--5h-8---17-----------------------------|---------------------------------17---8p-|


  L  L L  R  R   R  L  L   L  R  R   R      R   R   R  R  L   L  L  R   R  R L L   
       T  T  T      T  T      T  T                     T  T      T  T      T T T   

--------------------------------15h-19h-|--24p-19p-15-----------------------------|
-----------------------------17---------|-------------17--------------------------|
----------------------12h-16------------|----------------16p-12-------------------|
-------------------14-------------------|-----------------------14----------------|
----------------------------------------|-----------------------------------------|
-------7----15h-19----------------------|--------------------------19p-15----7----|
--5h-8---17-----------------------------|---------------------------------17---8p-|


  L  L L  R  R   R  L  L   L  R  R   R     L  L   L  R  R   R  L  L   L  R  R   R   
       T  T  T      T  T      T  T         T  T      T  T      T  T      T  T       

---------------------------------------|---------------15h-19--------------15h-19h-|
---------------------------------------|------------17------------------17---------|
----------------------12h-16-----------|-----12h-16--------------12h-16------------|
-------------------14------------------|--14------------------14-------------------|
---------------------------------------|-------------------------------------------|
-------7----15h-19--------------15h-19-|-------------------------------------------|
--5h-8---17------------------17--------|-------------------------------------------|


   R   R   R  R  L   L  L  R   R  R L L     L                                              
              T  T      T  T      T T T                                                    
                             
--24p-19p-15-----------------------------|----------------|
-------------17--------------------------|----------------|
----------------16p-12-------------------|----------------|
-----------------------14----------------|----------------|
-----------------------------------------|----------------|
--------------------------19p-15----7----|----------------|
---------------------------------17---8p-|--5~------------|
Добавлено: 09.05.2012
Вам также может быть интересно:
Другие материалы по этой песне:

Страница создана 02.03.2012
http://primanota.ru/chris-broderick/betcha-cant-play-this-chords.htm
Привет, Гость.
Предлагаем пройти революционный курс по гитаре.
Подарок от PrimaNota.Ru, забирай!