PrimaNota.ru - самый крупный в мире бесплатный архив песенных текстов, аккордов, табулатур и нот


Chopstick Johnjon - Pining Moon - таба, видео

Регистрация Запомнить меня
Войти через:  Facebook Google Twitter Vk Yandex Mail.ru

Chopstick Johnjon - Pining Moon - таба, видео

Печатать
Просмотров: 137
-------------------------------------------------------------------------------
                             PINING MOON - Chopstick & Johnjon
-------------------------------------------------------------------------------
Tabbed by: Danny Wizard
E-mail: yomama@myhouse.com

Tuning: Standard

e|---------------------------------------------------------------------------|
B|---------------------------------------------------------------------------|
G|----------3-----------3----------------3----------3------------------------|
D|------5-------5----------5---------5-------5---------5---------------------|
A|---6--------------6------------3---------------3---------------------------|
E|---------------------------------------------------------------------------|

e|---------------------------------------------------------------------------|
B|---------------------------------------------------------------------------|
G|----------3-----------3----------------2----------2------------------------|
D|------5-------5----------5---------3-------3---------3---------------------|
A|---------------------------------------------------------------------------|
E|---3--------------3------------1---------------3---------------------------|


************************************

That's it. Just reoeat this riff throughout the entire song. The Chords are: Eb Cm Gm F

Lyrics:

Give me night waves Forget about 
I don't want to be caught in the middle 
Like a riptide Landslide 
I don't want to be caught in the middle 
To annihilate Its a strip tease 
But you're nice a one in a million 
Want to trespass Forget about But you're not a one in a million 

And when you gazing up at the pining moon 
I will not need my eyes to recognize you 
When you gazing up at the pining moon 
I will not need my eyes to recognize you 

In a smoke storm See a killer 
Life flashes and you're caught in the middle 
Need a witness to forget about 
Life flashes and you're caught in the middle 
It's not a body bag Try to disappear 
Say you'll never be the one in a million 
Keep your head down Don't be telling me 
Say you'll never be the one in a million 

Chorus
************************************

ENJOY!
Добавлено: 05.12.2015
Другие материалы по этой песне:
  • Аккорды и текст

Страница создана 05.12.2015
http://primanota.ru/chopstick-johnjon/pining-moon-chords.htm
Привет, Гость.
Предлагаем пройти революционный курс по гитаре.
Подарок от PrimaNota.Ru, забирай!