PrimaNota.ru - самый крупный в мире бесплатный архив песенных текстов, аккордов, табулатур и нот


Choking Victim - Corporate Trash - таба, бас-таба, видео

Регистрация Запомнить меня
Войти через:  Facebook Google Twitter Vk Yandex Mail.ru

Choking Victim - Corporate Trash - таба, бас-таба, видео

Печатать
Просмотров: 95
-----------------------------------------------------------------------------
		     CORPORATE TRASH - Choking Victim
-----------------------------------------------------------------------------


Tuning: drop D

e|--11-----------------------------------------------------------------------|
B|--11--hit chord lightly let ring through bass intro------------------------|
G|--12-----------------------------------------------------------------------|
D|---------------------------------------------------------------------------|
A|---------------------------------------------------------------------------|
D|---------------------------------------------------------------------------

 verse (ska style strumming, mute downstrokes)
e|--4--1--3--3--------4--6--6------------------------------------------------|
B|--4--1--3--4--(x2)--4--6--8------------------------------------------------|
G|--5--2--4--3--------5--7--8------------------------------------------------|
D|--6--3--5-----------5--8--8------------------------------------------------|
A|--------------------------6------------------------------------------------|
D|---------------------------------------------------------------------------

 chorus
e|---------------------------------------------------------------------------|
B|---------------------------------------------------------------------------|
G|---------------------------------------------------------------------------|
D|--1--5--6--8---------------------------------------------------------------|
A|--1--5--6--8--this riff just repeats itself--------------------------------|
D|--1--5--6--8---------------------------------------------------------------

break (this part is strummed differently)
e|--3--2--3------------------------------------------------------------------|
B|--3--3--4------------------------------------------------------------------|
G|--4--2--3------------------------------------------------------------------|
D|--5--0---------------------------------------------------------------------|
A|---------------------------------------------------------------------------|
D|---------------------------------------------------------------------------

 the entire song is made up of verse, chorus, & break mixed up a bit until the
end there's a little solo thing going on sounds something like this:
e|----------18--18--18--18--18--18---11--11--11--11--11--11--10--10----11----|
B|--16-16-16--16--16--16--16--16--16---11--11--11--11--11--11--11--11--------||
G|-----------------------------------|------------------------------|--------|
D|-----------------------------------|---repeat this part 4 times---|--------| 
A|---------------------------------------------------------------------------|
D|---------------------------------------------------------------------------




| /  slide up
| \  slide down
| h  hammer-on
| p  pull-off
| ~  vibrato
| +  harmonic
| x  Mute note
=============================================================================
Добавлено: 30.09.2013
Другие материалы по этой песне:
  • Аккорды и текст

Страница создана 07.09.2013
http://primanota.ru/choking-victim/corporate-trash-chords.htm
Привет, Гость.
Предлагаем пройти революционный курс по гитаре.
Подарок от PrimaNota.Ru, забирай!