PrimaNota.ru - самый крупный в мире бесплатный архив песенных текстов, аккордов, табулатур и нот


Choir - A Sentimental Song - таба, видео

Регистрация Запомнить меня
Войти через:  Facebook Google Twitter Vk Yandex Mail.ru

Choir - A Sentimental Song - таба, видео

Печатать
Просмотров: 105
		   A Sentimental Song - The Choir   (**with solo added)
Circle Slide 

* Riff 1
Am
Children tremble,
D
Flowers fade so sadly.
Am                        D   Ds4  D
Love is strange to understand.
Am
Winter winds blow,
D
Does the truth sting badly?
Am                           D
Let your tears fall into my hands.
 C                  G/B
Let your tears fall into my hands.

F        Am
Listen closely,
            G
And I will sing for you,
   D/F#        F
A sentimental song,
               Am             G   D/F#
And you will know just how I feel.
F        Am
Listen closely,
            G        
And I will sing for you,
   D/F#        Am
A sentimental song.


Hide with me tonight,
Love endures the weather.
Let the rain make everything new.
In the morning,
We will dance together.
Let my song fall down around you.
Let my song fall down around you.

Chorus :

Repeat * Riff 1

Repeat chorus :

 *Riff 1
----------------------------------------------------
----------------------------------------------------
-5---4-5-4---5---4-5-4---5---4---4-5-4---4---2---2--
-7---5-------7---5-------5---5---5-------2---2---2--
----------------------------------------------------
----------------------------------------------------
(courtesy of Shannon Penner)
-------------------------------------------------------------------------

**I spent an hour or so tabbing this song out today (knowing that it wasn't on
the archives yet) and what happens?  I come to the archives and Shannon Penner beats
me to it!  :)   This song has been around for awhile so what are the chances someone
would tab it out the very day before I did? Oh well, here is the solo part...  ;)


(from the live concert at Cornerstone '96)
(Bill Campbell was doing the solo...add a bunch of vibratos in there...)


e----------------3---3---2----3-2-0-
B-10-8-6-5-3-1-3---3---3---3--------
G-----------------------------------   X 4     then...
D-----------------------------------
A-----------------------------------
E-----------------------------------

e--------------------------------------------------------------------------------
B-10--12--15p13p15--16b17--15--13--12--13--10--12b13--12--10------10--15--13--15-
G-------------------------------------------------------------12-----------------
D--------------------------------------------------------------------------------
A--------------------------------------------------------------------------------
E--------------------------------------------------------------------------------

e----------------------------------------------------------
B--16b17--15--13--12--13--10------13p12h13-----15--16b17---
G-----------------------------12------------12-------------
D----------------------------------------------------------
A----------------------------------------------------------
E----------------------------------------------------------

e----------------------------------------------
B--15--13--12--13--10--13p12h13------15p13h15--
G--------------------------------12------------  then repeat first part
D---------------------------------------------- 
A----------------------------------------------     of solo to end
E----------------------------------------------

(Main part of song courtesy of Shannon Penner)
(Solo by Wes Marlan  lookymike@aol.com  Corrections?  Comments?)
     
Добавлено: 15.10.2013
Другие материалы по этой песне:
  • Аккорды и текст

Страница создана 15.10.2013
http://primanota.ru/choir/a-sentimental-song-chords.htm
Привет, Гость.
Предлагаем пройти революционный курс по гитаре.
Подарок от PrimaNota.Ru, забирай!