PrimaNota.ru - самый крупный в мире бесплатный архив песенных текстов, аккордов, табулатур и нот


The Chocolate Watchband - Blues Theme - таба, видео

Регистрация Запомнить меня
Войти через:  Facebook Google Twitter Vk Yandex Mail.ru

The Chocolate Watchband - Blues Theme - таба, видео

Печатать
Просмотров: 77
-------------------------------------------------------------------------------
                             BLUES THEME - The Chocolate Watchband
-------------------------------------------------------------------------------
Tabbed by: cjog210
E-mail: cjog210@gmail.com

Tuning: Standard

e|---------------------------------------------------------------------------|
B|---------------------------------------------------------------------------|
G|---------------------------------------------------------------------------|
D|---------------------------------7--775--54-----7--775--54-----7--775--54--|
A|--------------------------------0----------7---0----------7---0----------7-|
E|-----0-0-00-3--2-1-0--00-3--2-1--------------------------------------------|

e|---------------------------------------------------------------------------|
B|----------------7-------------7--------------------------------------------|
G|----------------7--775--54----7--775-54------------------------------------|
D|--7--775--54---0----------7--0---------7--7--775--54-----7--775--54--------|
A|-0----------7----------------------------0----------7---0----------7-------|
E|---------------------------------------------------------------------------|

e|---------------------------------------------------------------------------|
B|---------------------------------------------------------------------------|
G|---------------------------------------------------------------------------|
D|---------------------------------7--775--54-----7--775--54-----7--775--54--|
A|--------------------------------0----------7---0----------7---0----------7-|
E|--0-0-0-0-3--2-1-0-0-0-0-3--2-1--------------------------------------------|

e|---------------------------------------------------------------------------|
B|----------------7-------------7--------------------------------------------|
G|----------------7--775--54----7--775-54------------------------------------|
D|--7--775--54---0----------7--0---------7--7--775--54-----7--775--54--------|
A|-0----------7----------------------------0----------7---0----------7-------|
E|---------------------------------------------------------------------------|
                                                               Quarter Notes
e|-------------------------------------------------------------5--5--5--5----|
B|-------------------------------------------------------------5--5--5--5----|
G|-------------------------------------------------------------6--6--6--6----|
D|---------------------------------7--775--54-----7--775--54---7--7--7--7----|
A|--------------------------------0----------7---0----------7--7--7--7--7----|
E|--0-0-0-0-3--2-1-0-0-0-0-3--2-1------------------------------5--5--5--5----|
    Eighth Notes    Quarter Notes
e|-5-5-5-5-5-5-5-5-|5--5--5--5--|5--5--5--5----------------------------------|
B|-5-5-5-5-5-5-5-5-|5--5--5--5--|5--5--5--5----------------------------------|
G|-6-6-6-6-6-6-6-6-|6--6--6--6--|6--6--6--6----------------------------------|
D|-7-7-7-7-7-7-7-7-|7--7--7--7--|7--7--7--7---7--775--54---7--775--54---7--77|
A|-7-7-7-7-7-7-7-7-|7--7--7--7--|7--7--7--7--0----------7-0----------7-0-----|
E|-5-5-5-5-5-5-5-5-|5--5--5--5--|5--5--5--5----------------------------------|

e|---------------------------------------------------------------------------|
B|----------------------7-------------7--------------------------------------|
G|----------------------7--775--54----7--775-54------------------------------|
D|5--54---7--775--54---0----------7--0---------7--7--775--54-----7--775--54--|
A|-----7-0----------7----------------------------0----------7---0----------7-|
E|---------------------------------------------------------------------------|

e|---------------------------------------------------------------------------|
B|---------------------------------------------------------------------------|
G|---------------------------------------------------------------------------|
D|---------------------------------7--775--54-----7--775--54---7-------------|
A|--------------------------------0----------7---0----------7--0-------------|
E|--0-0-0-0-3--2-1-0-0-0-0-3--2-1--------------------------------------------|


************************************

| /   slide up
| \   slide down
| h   hammer-on
| p   pull-off
| ~   vibrato
| +   harmonic
| x   Mute note
| b   Bend
| pb  Pre-bend
| br  Bend release
| pbr Pre-bend release
| brb Bend release bend

************************************
Добавлено: 11.12.2015
Другие материалы по этой песне:
  • Аккорды и текст

Страница создана 11.12.2015
http://primanota.ru/chocolate-watchband/blues-theme-chords.htm
Привет, Гость.
Предлагаем пройти революционный курс по гитаре.
Подарок от PrimaNota.Ru, забирай!