PrimaNota.ru - самый крупный в мире бесплатный архив песенных текстов, аккордов, табулатур и нот


Chocolate Watch Band - Medication - бас-таба, видео

Регистрация Запомнить меня
Войти через:  Facebook Google Twitter Vk Yandex Mail.ru

Chocolate Watch Band - Medication - бас-таба, видео

Печатать
Просмотров: 94


chocolate watchband

 medication


e:-33---------3-11-----------:
a:----135-3531-----013-13101-:
d:---------------------------:
g:---------------------------:
                               x6

e:-33---------3-:
a:----135-3531--:
d:--------------:
g:--------------:

e:-3---1--33-----------33-----------33-----------1------------------------------------------1---:
a:-----------135-35313----135-35313----135-35313-----11-135-35313-11-135-35313-11-135-35313-----:
d:----------------------------------------------------------------------------------------------:
g:----------------------------------------------------------------------------------------------:

e:-33---------3-11-----------:
a:----135-3531-----013-13101-:
d:---------------------------:
g:---------------------------:
                               x6

Добавлено: 03.08.2013
Другие материалы по этой песне:
  • Аккорды и текст

Страница создана 03.08.2013
http://primanota.ru/chocolate-watch-band/medication-chords.htm
Привет, Гость.
Предлагаем пройти революционный курс по гитаре.
Подарок от PrimaNota.Ru, забирай!