PrimaNota.ru - самый крупный в мире бесплатный архив песенных текстов, аккордов, табулатур и нот


Chockfull - Waste Of Time - таба, видео

Регистрация Запомнить меня
Войти через:  Facebook Google Twitter Vk Yandex Mail.ru

Chockfull - Waste Of Time - таба, видео

Печатать
Просмотров: 101
Уроки эстрадного вокала в Санкт-Петербурге
This song was written by Chockfull, a Dutch band. You can download the song at www.chockfull.nl / songs
All right, this isn't a proffesional band, but there's no need to discriminate us 'cos we're dutch


Intro:
Gtr 1
----------------------------|
----------------------------|
----------------------------|
-7-7--10-10--5-5--7-7-------| 2x
-5-5-—-8--8--3-3--5-5-------|
----------------------------|

Gtr 2
----------------------------|
----------------------------|
----------------------------|
----------------------------|
-5-5--7-7--10-10--5---------|
-3-3--5-5---8--8--3---------|


Chorus:
Gtr 1
---------------------------------------------------------------|
---------------------------------------------------------------|
---------------------------------------------------------------|
---------------------------------5-5-5-5-5-5-5-5-----------5-5-|
-5-5-5-5-5-5-5-5-7-7-7-7-7-7-7-7-3-3-3-3-3-3-3-3-5-5-5-7-7-3-3-|
-3-3-3-3-3-3-3-3-5-5-5-5-5-5-5-5-----------------3-3-3-5-5-----|

Gtr 2
------------------------------------------------------|
------------------------------------------------------|
------------------------------------------------------|
------------------------------------------------------|
-10-10-10-10-10-10-10-10-12-12-12-12-12-12-12-12-12---|
------------------------------------------------------|

-----------------------------------------------------|
-----------------------------------------------------|
-----------------------------------------------------|
-10-10-10-10-10-10-10-10-----------------------------|
-------------------------10-10-10-12-12-14-14--------|
-----------------------------------------------------|


Verse:

Gtr 1
--------------------------|
--------------------------|
--------------------------|
-7-7-7-7-7--3-3-3------5--|
-------------------3-3----|
--------------------------|

Gtr 2
-----------------------------------------------|
-----------------------------------------------|
-----------------------------------------------|
----------------14-14-14-14-10-10-10--5-5--12--|
-7-7-7-7-7-7-7--12-12-12-12--8--8--8--3-3--10--|
-5-5-5-5-5-5-5---------------------------------|

Chorus 4x

Verse 4x


Bridge:

Gtr 2
-------------------------------------------------|
-------------------------------------------3s15--|
-------------------------------------------------|
-------------------------------------------------|
-5-x-x-x-x--5s7-x-x-x-x--7s10-x-x-x-x-10s5-------|
-3-x-x-x-x--3s5-x-x-x-x--5s-8-x-x-x-x--8s3-------|


Chorus 4x

I haven't written all muted notes, but I think you'll be able to find out the rhythm 
you can just give up the guitar)

By CFTim
Добавлено: 16.07.2012
Другие материалы по этой песне:
  • Аккорды и текст

Страница создана 16.07.2012
http://primanota.ru/chockfull/waste-of-time-chords.htm
Привет, Гость.
Предлагаем пройти революционный курс по гитаре.
Подарок от PrimaNota.Ru, забирай!