PrimaNota.ru - самый крупный в мире бесплатный архив песенных текстов, аккордов, табулатур и нот


Chiodos - The Words Best Friends Become Redefined - бас-таба, видео

Регистрация Запомнить меня
Войти через:  Facebook Google Twitter Vk Yandex Mail.ru

Chiodos - The Words Best Friends Become Redefined - бас-таба, видео

Печатать
Просмотров: 151
Уроки эстрадного вокала в Санкт-Петербурге
Chiodos-The Words Best Friends Becomed Redefined
| /  slide up
| \  slide down
| h  hammer-on
| p  pull-off
| ~  vibrato
| +  harmonic
| x  Mute note
Intro
G-------------------------------------------------|
D-------------------------------------------------|
A---55555555/777777666666—44444444/777777666666-5-|
D-------------------------------------------------|
                       X2
G----------10-9----------|
D-------12------12-11-12-|
A-----12-----------------|
D---12-------------------|
                       X2
G----------10-9----------|
D-------12------12-11-12-|
A-----12-----------------|
D---10-------------------|
                       X2
G----------10-9----------|
D-------12------12-11-12-|
A-----12-----------------|
D----8-------------------|

G----------------------7-10-9-7-6-7-|
D---------------5-7-8-8-------------|
A--------5-7-8----------------------|
D—7-8-10----------------------------|

                       X2
G----------10-9----------|
D-------12------12-11-12-|
A-----12-----------------|
D---12-------------------|
                       X2
G----------10-9----------|
D-------12------12-11-12-|
A-----12-----------------|
D---10-------------------|
                       X2
G----------10-9----------|
D-------12------12-11-12-|
A-----12-----------------|
D----8-------------------|

G---------------------|
D---------------5-7-8-|
A--------5-7-8--------|
D—7-8-10--------------|


G----------------------------|
D----------------------------|
A-5~-35-7-3-1~-0-00-3~-5~----|
D—---------------------------|

G------------------------------------------------|
D------------------------------------------------|
A-555555777777774444444----555555555777779999999-|
D—-----------------------------------------------|
          X18
G-----------|
D-----------|
A-----------|
D—00--0-000-|

Outro
G--12—7----|  For this part tap the twelth fret and hit the seventh.
D----------|
A----------|
D—---------|
Добавлено: 10.06.2012
Другие материалы по этой песне:
  • Аккорды и текст

Страница создана 10.06.2012
http://primanota.ru/chiodos/the-words-best-friends-become-redefined-chords.htm
Привет, Гость.
Предлагаем пройти революционный курс по гитаре.
Подарок от PrimaNota.Ru, забирай!