PrimaNota.ru - самый крупный в мире бесплатный архив песенных текстов, аккордов, табулатур и нот


Chiodos - Ode To The 2nd Hour - таба, видео

Регистрация Запомнить меня
Войти через:  Facebook Google Twitter Vk Yandex Mail.ru

Chiodos - Ode To The 2nd Hour - таба, видео

Печатать
Просмотров: 134
E|--------------------------------------------------------------------------|
B|--------------------------------------------------------------------------|
G|--7-----------------------------------------------------------------------|
D|--7-x15---7------------9xxxx--7xxxx----5xxxx------------------------------|
A|--5-------7--x15-------9xxxx--7xxxx----5xxxx------------------------------|
E|----------5------------7xxxx--5xxxx----3xxxx------------------------------|

This basically repeats Ti'll The Solo

   
sorry I could only tab part of the solo

E|--10-10-9--------------------------------------------------------------|
B|----------10-3---------------------------------------------------------|
G|-----------------------------------------------------------------------|
D|-----------------------------------------------------------------------|
A|-----------------------------------------------------------------------|
E|-----------------------------------------------------------------------|

then is goes


E|-----------------------------------------------------------------------|
B|-----------------------------------------------------------------------|
G|---7-----------------------------7-------------------------------------|
D|---5-----9--------7-----5--------7-x7--9------7------5-----------------|
A|---5-x7--9-x7-----7-x15-5--x15---5-----9-x7---7-x15--5-x15-------------|
E|---------7--------5-----3--------------7------5------3-----------------|

okay this part im not to sure but it sounds right ^_^ :)

E|-----------------------------------------------------------------------|
B|-----------------------------------------------------------------------|
G|---7----9-----11----12////7--------------------------------------------|
D|---7-x6-9-x6--11-x6-12////7--------------------------------------------|
A|---5----7-----9-----10////5--------------------------------------------|
E|-----------------------------------------------------------------------|


and then again this
E|--------------------------------------------------------------------------|
B|--------------------------------------------------------------------------|
G|--7-----------------------------------------------------------------------|
D|--7-x15---7------------9xxxx--7xxxx----5xxxx------------------------------|
A|--5-------7--x15-------9xxxx--7xxxx----5xxxx------------------------------|
E|----------5------------7xxxx--5xxxx----3xxxx------------------------------|

and then this again

E|-----------------------------------------------------------------------|
B|-----------------------------------------------------------------------|
G|---7-----------------------------7-------------------------------------|
D|---7-----9--------7-----5--------7-x7--9------7------5-----------------|
A|---5-x7--9-x7-----7-x15-5--x15---5-----9-x7---7-x15--5-x15-------------|
E|---------7--------5-----3--------------7------5------3-----------------|


and then this

E|-----------------------------------------------------------------------|
B|-----------------------------------------------------------------------|
G|---7----9-----11----12////7--------------------------------------------|
D|---7-x6-9-x6--11-x6-12////7--------------------------------------------|
A|---5----7-----9-----10////5--------------------------------------------|
E|-----------------------------------------------------------------------|


okay I'll be back to finish tabbing it later






Добавлено: 04.03.2012
Другие материалы по этой песне:
  • Аккорды и текст

Страница создана 04.03.2012
http://primanota.ru/chiodos/ode-to-the-2nd-hour-chords.htm
Привет, Гость.
Предлагаем пройти революционный курс по гитаре.
Подарок от PrimaNota.Ru, забирай!