PrimaNota.ru - самый крупный в мире бесплатный архив песенных текстов, аккордов, табулатур и нот


Chiodos - Lindsay Quit Lollygagging Live - таба, видео

Регистрация Запомнить меня
Войти через:  Facebook Google Twitter Vk Yandex Mail.ru

Chiodos - Lindsay Quit Lollygagging Live - таба, видео

Печатать
Просмотров: 92
ok so this is how they play it live on the acoustic

inro
e|--------------------------------------------------------------|
B|--------------------------------------------------------------|
G|-1-11-1-11-1111-1-11-1-11-1111-4-44-4-44-4444-2-22-2-22-2222--|
D|-2-22-2-22-2222-2-22-2-22-2222-4-44-4-44-4444-2-22-2-22-2222--|
A|-2-22-2-22-2222-2-22-2-22-2222-2-22-2-22-2222-0-00-0-00-0000--|
E|-------------------------------2-22-2-22-2222-----------------|

e|--------------------------------------------------------------|
B|--------------------------------------------------------------|
G|-------------------------------4-44-4-44-4444-2-22-2-22-2222--|
D|-2-22-2-22-2222-2-22-2-22-2222-4-44-4-44-4444-2-22-2-22-2222--|
A|-2-22-2-22-2222-2-22-2-22-2222-2-22-2-22-2222-0-00-0-00-0000--|
E|-0-00-0-00-0000-0-00-0-00-0000-2-22-2-22-2222-----------------|

verse play 2 times
e|-------------------------------------------------------------|
B|-------------------------------------------------------------|
G|-1-11-1-11-1111-1-11-1-11-1111-4-44-4-44-4444-2-22-2-22-2222-|
D|-2-22-2-22-2222-2-22-2-22-2222-4-44-4-44-4444-2-22-2-22-2222-|
A|-2-22-2-22-2222-2-22-2-22-2222-2-22-2-22-2222-0-00-0-00-0000-|
E|-------------------------------2-22-2-22-2222----------------|

chorus
e|---------------------------------------------|
B|---------------------------------------------|
G|-66xx44xx2~-66xx2~-4~-4-66xx44-2~-66xx2~-4~--|4444
D|-66xx44xx2~-66xx2~-4~-4-66xx44-2~-66xx2~-4~--|4444
A|-44xx22xx0~-44xx0~-2~-2-44xx22-0~-44xx0~-2~--|2222
E|-44xx22xx---44xx---2~-2-44xx22----44xx---2~--|2222

post chorus
e|-------------------------------------------------------------|
B|-------------------------------------------------------------|
G|-1-11-1-11-1111-1-11-1-11-1111-4-44-4-44-4444-2-22-2-22-2222-|
D|-2-22-2-22-2222-2-22-2-22-2222-4-44-4-44-4444-2-22-2-22-2222-|
A|-2-22-2-22-2222-2-22-2-22-2222-2-22-2-22-2222-0-00-0-00-0000-|
E|-------------------------------2-22-2-22-2222----------------|

e|-------------------------------------------------------------|
B|-------------------------------------------------------------|
G|-1-11-1-11-1111-1-11-1-11-1111-4-44-4-44-4444-2/44/66/88-----|
D|-2-22-2-22-2222-2-22-2-22-2222-4-44-4-44-4444-2/44/66/66-----|
A|-2-22-2-22-2222-2-22-2-22-2222-2-22-2-22-2222----------------|
E|-------------------------------2-22-2-22-2222----------------|

verse same as before
chorus same as before
bridge play 4 times
e|----------|
B|----------|
G|-1~-4~-2~-|
D|-2~-4~-2~-|
A|-2~-2~-0~-|
E|----2~----|

intrumental solo thing
e|--------------------------------------------------------------------|
B|--------------------------------------------------------------------|
G|-2222222-6-66-8888-6666-4-44-6666-4444-22/44/66/88-22/44/66/88------|
D|-2222222-4-44-4444-4444-2-22-2222-2222-22/44/66/66-22/44/44/66------|
A|-0000000-4-44-4444-4444-2-22-2222-2222------------------------------|
E|---------4-44-4444-4444-2-22-2222-2222------------------------------|

e|-----------------------------------------------------|
B|-----------------------------------------------------|
G|-6-66-8888-6666-4-44-6666-4444-2-22-22-22-2-22-22-22-|
D|-4-44-4444-4444-2-22-2222-2222-2-22-22-22-2-22-22-22-|
A|-4-44-4444-4444-2-22-2222-2222-0-00-00-00-0-00-00-00-|
E|-4-44-4444-4444-2-22-2222-2222-----------------------|

then chorus and then bridge
Добавлено: 07.07.2013
Другие материалы по этой песне:
  • Аккорды и текст

Страница создана 07.07.2013
http://primanota.ru/chiodos/lindsay-quit-lollygagging-live-chords.htm
Привет, Гость.
Предлагаем пройти революционный курс по гитаре.
Подарок от PrimaNota.Ru, забирай!