PrimaNota.ru - самый крупный в мире бесплатный архив песенных текстов, аккордов, табулатур и нот


Chiodos - If I Cut My Hair Hawaii Will Sink - таба, видео

Регистрация Запомнить меня
Войти через:  Facebook Google Twitter Vk Yandex Mail.ru

Chiodos - If I Cut My Hair Hawaii Will Sink - таба, видео

Печатать
Просмотров: 94
(intro)
[jason]
|--------------------------------------------------------------------|
|--------------------------------------------------------------------|
|--------------------------------------------------------------------|
|--9-9-9-9-9-9-9-9-9-9-9-9-9-9-9-9-9-9-9-9-9-9-9-9-9-9-9-9-9-9-9-9---|
|--7-7-7-7-7-7-7-7-7-7-7-7-7-7-7-7-7-7-7-7-7-7-7-7-7-7-7-7-7-7-7-7---|
|--7-7-7-7-7-7-7-7-7-7-7-7-7-7-7-7-7-7-7-7-7-7-7-7-7-7-7-7-7-7-7-7---|
(p.m.)


(verse)"you keep tuggin on my shirt..."
[jason]
|------------------------------------------------------------------------|
|------------------------------------------------------------------------|
|------------------------------------------------------------------------|
|--9-9-9-9-9-9-9-9-9-9-9-9-9-9-9-9-9-9-9-9-9-9-9-9-9-9-9-9-9-9-9-9-9-9---|
|--7-7-7-7-7-7-7-7-7-7-7-7-7-7-7-7-7-7-7-7-7-7-7-6-6-6-7-7-7-7-7-7-7-7---|
|--7-7-7-7-7-7-7-7-9-9-9-9-9-9-9-9-7-7-7-7-7-7-7-6-6-6-7-7-7-7-7-7-7-7---|(x4)
(p.m.)


(pre-chorus)"fit to be tied!..."
[jason]
|--------------------------------------------------------------------|
|--------------------------------------------------------------------|
|--------4-44---5--55----10-1010---------4-44---5--55----10-1010-----|
|--7-77--x-xx---x--xx----x--x-x----7-77--x-xx---x--xx----x--x-x------|
|--7-77--2-22---3--33----8--8-8----7-77--2-22---3--33----8--8-8------|
|--7-77----------------------------7-77------------------------------|

[pat]
|------------------------------------------------------------------|
|------------------------------------------------------------------|
|------------------------------------------------------------------|
|--7-77/-9-99/-10-1010-1010--7-77/-9-99/-10-1010-1010--------------|
|--7-77/-9-99/-10-1010-8-88--7-77/-9-99/-10-1010-8-88--------------|
|--7-77/-9-99/-10-1010-------7-77/-9-99/-10-1010-------------------|


(chorus)"i feel weak..."
[jason]
|---------------------------------------------------------------|
|---------------------------------------------------------------|
|---------------------------------------------------------------|
|--7-7-x-1010-66-x-7-7-x-9-9---7-7-x-1010-66-x-7-7-x-9-9--------|
|--7-7-x-1010-66-x-7-7-x-9-9---7-7-x-1010-66-x-7-7-x-9-9--------|
|--7-7-x-1010-66-x-7-7-x-9-9---7-7-x-1010-66-x-7-7-x-9-9--------|(x2)

[pat]
|--------------------------------------------------------------------|
|--------------------------------------------------------------------|
|--9-9-9-9-9-9-9-9-9-9-9-9-9-9-9-9-9-9-9-9-9-9-9-9-9-9-9-9-9-9-9-9---|
|--x-x-x-x-x-x-x-x-x-x-x-x-x-x-x-x-x-x-x-x-x-x-x-x-x-x-x-x-x-x-x-x---|
|--7-7-7-7-7-7-7-7-7-7-7-7-7-7-7-7-7-7-7-7-7-7-7-7-7-7-7-7-7-7-7-7---|
|--------------------------------------------------------------------|


(bridge) "and i know what your thinkin..."
[jason]
|----------------------------------------------------------------------------------|
|----------------------------------------------------------------------------------|
|--99-88-99----------99-88-99-1111-12-12---99-88-99----------99-88-99-1111-12-12---|
|--xx-xx-xx-x-0-x-0--xx-xx-xx-x-x--x--x----xx-xx-xx-x-0-x-0--xx-xx-xx-x-x---x--x---|
|--77-66-77-x-0-x-0--77-66-77-9-9--10-10---77-66-77-x-0-x-0--77-66-77-9-9--10-10---|
|-----------x-0-x-0---------------------------------x-0-x-0------------------------|


[pat]
|--------------------------------------------------------------------------------------|
|--------------------------------------------------------------------------------------|
|--------------------------------------------------------------------------------------|
|--77-x-66-77-x-0-x-0--77-x-66-77-99-1010---77-x-66-77-x-0-x-0--77-x-66-77-99-1010-----|
|--77-x-66-77-x-0-x-0--77-x-66-77-99-1010---77-x-66-77-x-0-x-0--77-x-66-77-99-1010-----|
|--77-x-66-77-x-0-x-0--77-x-66-77-99-1010---77-x-66-77-x-0-x-0--77-x-66-77-99-1010-----|


(verse2)
[jason]
|--------------------------------------------------------------------|
|--------------------------------------------------------------------|
|--------------------------------------------------------------------|
|--9-9-9-9-9-9-9-9-9-9-9-9-9-9-9-9-9-9-9-9-9-9-9-9-9-9-9-9-9-9-9-9---|
|--7-7-7-7-7-7-7-7-7-7-7-7-7-7-7-7-7-7-7-7-7-7-7-7-7-7-7-7-7-7-7-7---|
|--7-7-7-7-7-7-7-7-7-7-7-7-7-7-7-7-7-7-7-7-7-7-7-7-7-7-7-7-7-7-7-7---|
(p.m.)

[jason]"now grown numb, im petrified i think..."
|------------------------------------------------------------------------|
|------------------------------------------------------------------------|
|------------------------------------------------------------------------|
|--9-9-9-9-9-9-9-9-9-9-9-9-9-9-9-9-9-9-9-9-9-9-9-9-9-9-9-9-9-9-9-9-9-9---|
|--7-7-7-7-7-7-7-7-7-7-7-7-7-7-7-7-7-7-7-7-7-7-7-6-6-6-7-7-7-7-7-7-7-7---|
|--7-7-7-7-7-7-7-7-9-9-9-9-9-9-9-9-7-7-7-7-7-7-7-6-6-6-7-7-7-7-7-7-7-7---|(x3)
(p.m.)


(chorus)"i feel weak..."
[jason]
|---------------------------------------------------------------|
|---------------------------------------------------------------|
|---------------------------------------------------------------|
|--7-7-x-1010-66-x-7-7-x-9-9---7-7-x-1010-66-x-7-7-x-9-9--------|
|--7-7-x-1010-66-x-7-7-x-9-9---7-7-x-1010-66-x-7-7-x-9-9--------|
|--7-7-x-1010-66-x-7-7-x-9-9---7-7-x-1010-66-x-7-7-x-9-9--------|(x2)

[pat]
|--------------------------------------------------------------------|
|--------------------------------------------------------------------|
|--9-9-9-9-9-9-9-9-9-9-9-9-9-9-9-9-9-9-9-9-9-9-9-9-9-9-9-9-9-9-9-9---|
|--x-x-x-x-x-x-x-x-x-x-x-x-x-x-x-x-x-x-x-x-x-x-x-x-x-x-x-x-x-x-x-x---|
|--7-7-7-7-7-7-7-7-7-7-7-7-7-7-7-7-7-7-7-7-7-7-7-7-7-7-7-7-7-7-7-7---|
|--------------------------------------------------------------------|


(bridge)"and i know what your thinkin.."
[jason]
|---------{--19-}----{---22--}------{--19--}--{--20--}---------------|
|--------------------------------------------------------------------|
|--------------------------------------------------------------------|
|--tremelo pick each note, just listen to jason and you'll get it----|
|--------------------------------------------------------------------|
|--------------------------------------------------------------------|

[pat]
|----------------------------------------------------------------------------|
|----------------------------------------------------------------------------|
|----------------------------------------------------------------------------|
|---7/-10-\-6--2-32---7/-10-\-6--2-32---7/-10-\-6--2-32---7/-10-\-6--2-32----|
|---7/-10-\-6--2-32---7/-10-\-6--2-32---7/-10-\-6--2-32---7/-10-\-6--2-32----|
|---7/-10-\-6--2-32---7/-10-\-6--2-32---7/-10-\-6--2-32---7/-10-\-6--2-32----|


(breakdown)"sell it well! c'mon and sell it well..."
[jason]
|----------------------------------------------------------------------------|
|----------------------------------------------------------------------------|
|----------------------------------------------------------------------------|
|---7/-10-\-6--2-32---7/-10-\-6--2-32---7/-10-\-6--2-32---7/-10-\-6--2-32----|
|---7/-10-\-6--2-32---7/-10-\-6--2-32---7/-10-\-6--2-32---7/-10-\-6--2-32----|
|---7/-10-\-6--2-32---7/-10-\-6--2-32---7/-10-\-6--2-32---7/-10-\-6--2-32----|(x2)

[pat]
|----------------------------------------------------------------------------|
|----------------------------------------------------------------------------|
|--9-9-9-9-9-9-9-9-9-9-9-9-9-9-9-9-9-9-9-9-9-9-9-9-9-9-9-9-9-9-9-9-9-9-9-9---|
|--x-x-x-x-x-x-x-x-x-x-x-x-x-x-x-x-x-x-x-x-x-x-x-x-x-x-x-x-x-x-x-x-x-x-x-x---|
|--7-7-7-7-7-7-7-7-7-7-7-7-7-7-7-7-7-7-7-7-7-7-7-7-7-7-7-7-7-7-7-7-7-7-7-7---|
|----------------------------------------------------------------------------|(strum the 
breakdown!)

tylerp.
Добавлено: 12.09.2013
Другие материалы по этой песне:
  • Аккорды и текст

Страница создана 12.09.2013
http://primanota.ru/chiodos/if-i-cut-my-hair-hawaii-will-sink-chords.htm
Привет, Гость.
Предлагаем пройти революционный курс по гитаре.
Подарок от PrimaNota.Ru, забирай!