PrimaNota.ru - самый крупный в мире бесплатный архив песенных текстов, аккордов, табулатур и нот


Chiodos - Expired In Goreville - текст песни, таба, видео

Регистрация Запомнить меня
Войти через:  Facebook Google Twitter Vk Yandex Mail.ru

Chiodos - Expired In Goreville - текст песни, таба, видео

Печатать
Просмотров: 119
This is my first tab so it might not be that great. but yeah, here it goes.


Band: Chiodos
Song: Expired In Goreville
Album: All's Well That Ends Well
Tuning low to high (DADGBE)

*= palm mute
\= slide low-high
p= pull off
h= hammer on
^^^= vibrato

(INTRO)

(0:32)        (0:41)
e------------------|
b------------------|
g---2~-------2~----|
d---0~-------0~----|
a---0~-------0~----|
D---0~-------0~----|


(Verse)

(0:50)
e------------------------------------------------------|
b------------------------------------------------------|
g------14----14----12----10\12----10----10-----9----12-|
d---00--x-00--x-00--x-00--x\ x-00--x-00--x--00-x-00--x-|
a---00-12-00-12-00-10-00--8\10-00--8-00--8--00-7-00-10-|
D---00----00----00----00-------00----00-----00---00----|
    **    **    **    **       **    **     **   **

(0:55)
e---------------------------------------------------------|
b---------------------------------------------------------|
g------14----14----12----10\12----10----10-----12----10/9-|
d---00--x-00--x-00--x-00--x\ x-00--x-00--x--00--x-00--x/x-|
a---00-12-00-12-00-10-00--8\10-00--8-00--8--00-10-00--8/7-|
D---00----00----00----00-------00----00-----00----00------|
    **    **    **    **       **    **     **    **


(Chorus)
(1:00)
e-------------------------------------|
b-------------------------------------|
g---7/-----7/-----7/------------------|  (PLAY 2x)
d---x/-0~--x/-0~--x/-0~--3333-2-2-2-2-|
a---5/-0~--5/-0~--5/-0~--3333-2-2-2-2-|
D------0~-----0~-----0~--3333-2-2-2-2-|
                         **** * * * *


(Riff)
(1:09)
e-----------------------------------------------------10/0-|
b-----10-10h11-10-8-11p10^^^---10-10h11-10-8-11-10-11------|
g---7------------------------7-----------------------------|
d----------------------------------------------------------|  (PLAY 2x)
a----------------------------------------------------------|
D----------------------------------------------------------|


(END RIFF WITH)
e------|
b------|
g------|
d---0~~
a---0~~
D---0~~


(Verse 2)
(1:21)               (1:23)
e--------------------o-----------------------------------|
b--------------------o-----------------------------------|
g--------------------o-----------------------------------|
d---7-7-77-3-3-2-2---o-00-00-0-0-0-0-0-77-77-33-33-10-10-|
a---7-7-77-3-3-2-2---o-00-00-0-0-0-0-0-77-77-33-33-10-10-|
D---7-7-77-3-3-2-2---o-00-00-0-0-0-0-0-77-77-33-33-10-10-|


e--------------------------------------|o
b--------------------------------------|o
g--------------------------------------|o(back to line of o's 1x)
d---00-00-00-00-0-0-77-77-33-33-10-10--|o
a---00-00-00-00-0-0-77-77-33-33-10-10--|o
D---00-00-00-00-0-0-77-77-33-33-10-10--|o

(1:38)
e------------------------------------------------------|
b------------------------------------------------------|
g------14----14----12----10\12----10----10-----9----12-|
d---00--x-00--x-00--x-00--x\ x-00--x-00--x--00-x-00--x-|
a---00-12-00-12-00-10-00--8\10-00--8-00--8--00-7-00-10-|
D---00----00----00----00-------00----00-----00---00----|
    **    **    **    **       **    **     **   **


(1:47)
e----------------------------------------|
b----------------------------------------|
g---10/-----10/-----10/------------------| (PLAY 2x)
d----x/-0~---x/-0~---x/-0~--3333-2-2-2-2-|
a---12/-0~--12/-0~--12/-0~--3333-2-2-2-2-|
D-------0~------0~------0~--3333-2-2-2-2-|
                            **** * * * *
              (1:58)
e-----------------------------------------------------------------------|
b--------------------------------------3-4-3-4-3-4-3-4------------------|
g---3-3----------------3-4-3-4-3-4-3-4------------------3-4-3-4-3-4-3-4-|
d---3-3--------0~~~-----------------------------------------------------|
a---1-1--------0~~~-----------------------------------------------------|
D--------------0~~~-----------------------------------------------------|


e---------------------------------------|
b---3-4-3-4-3-4-3-4---------3-4-3-4-----|
g-------------------3-4-3-4----------0~-|
d------------------------------------0~-|
a------------------------------------0~-|
D------------------------------------0~-|

(BREAKDOWN)
(2:14)
e--------------------------------------|
b-----16-16---------14---16-16----7\10-|
g-----19-19---------17---19-19---10\13-|
d---0-------0-0-0-0----0-------0-------|    (PLAY 4x)
a---0-------0-0-0-0----0-------0-------|
D---0-------0-0-0-0----0-------0-------|
    *       * * * *    *       *

(OUTRO)
(2:33)
e---------------------------------------------------------|
b-----10-10h11-10-8-11p10^^^---10-10h11-13----------------|
g---7------------------------7----------------------------|
d---------------------------------------------------------|
a---------------------------------------------------------|
D---------------------------------------------------------|


(2:37)
e--------------------------------------|
b-----10-11---8-10----10-11---8-10--10-|
g---7-------7-------7-------7--------7-|
d--------------------------------------|
a--------------------------------------|
D--------------------------------------|


(2:50)
e----------------------------10--|
b-----10-10h11-10-8-11-10-11-----|
g---7----------------------------|
d--------------------------------|
a--------------------------------|
D--------------------------------|

Alright that's it if you have any questions or inquiries just email me at Ibanez061@aol.com.
Добавлено: 30.10.2013
Другие материалы по этой песне:
  • Аккорды и текст

Страница создана 17.03.2012
http://primanota.ru/chiodos/expired-in-goreville-chords.htm
Привет, Гость.
Предлагаем пройти революционный курс по гитаре.
Подарок от PrimaNota.Ru, забирай!