PrimaNota.ru - самый крупный в мире бесплатный архив песенных текстов, аккордов, табулатур и нот


Chiodos - Compromise Of 1984 - таба, бас-таба, видео

Регистрация Запомнить меня
Войти через:  Facebook Google Twitter Vk Yandex Mail.ru

Chiodos - Compromise Of 1984 - таба, бас-таба, видео

Печатать
Просмотров: 178
Уроки эстрадного вокала в Санкт-Петербурге
The Chiodos Brothers(chiodos)-The Compromise Of 1984
Standard Tuning
| /  slide up
| \  slide down
| h  hammer-on
| p  pull-off
| ~  vibrato
| +  harmonic
| x  Mute note


Riff 1 (x1)

G ----------------------------------|
D 0/5-5-5-55-444440-5-5-5-57-55-40--|
A --------------------------------2-|
E ----------------------------------|

G -----------------------|
D -----------------------|
A 2-2-2-22------2-2-2-22-|
E -----------------------|


Riff 2 (x2)

G --------------------------------|
D 5-5-5-55-444440-5-5-5-57-55-40--|
A ------------------------------2-|
E --------------------------------|


G -----------------------|
D -----------------------|
A 3-3-3-33------3-3-3-33-|
E -----------------------|


Riff 3 (x3)

G ---------------|
D ----------5----|
A 22-33-5555-535-|
E ---------------|

Riff 4 (x1)

G ----------|
D ----------|
A 22-33-----|
E ------33~-|

Riff 5 (x3)

G --------------------|
D 5-5-5-5-5-5-5-7\----|(3)
A --------------------|
E --------------------|

G ---------------|
D ---------------|
A 33--33--33--33-|
E ---------------|

Pause until 01:19
Riff 6

G -----
D -----
A 5\(2)
E -----

G ----------------------|
D ----------------------|
A 222---333-------------|
E ------------333---333-|

G ------------------------|
D ------------------------|
A 222---333--------5553-2-|
E ------------333---------|

G ---------------------------------|
D ---------------------------------|
A 2222222233333333-----------------|
E ----------------3333333333333333-|

G -----------------------------------|
D ----------------55557777999910\----|(2)
A 2222222233333333-------------------|
E -----------------------------------|

Riff 7 (x2)

G --------------------------------|
D --------------------------------|
A 222-2-2333-3-3------------------|
E ----------------3-3-3-3-3-3-3-3-|

Riff 8

G --------------------------------|
D --------------------------------|
A 222-2-2333-3-3----------555-333-|
E ---------------33333333---------|

Riff 9

G ---------------------------------|
D --------------55557777999910\----|(2)
A 222-2-2333-3-3-------------------|
E ---------------------------------|

Riff 10 (x2)

G ---------------------------------|
D ---------------------------------|
A 2222222233333333-----------------|
E ----------------3333333333333333-|

Riff 11

G ----------|
D ----------|
A 2-2-3-3---|
E -------3~-|

Riff 12

G ---------|
D ---------|
A 2-223~---|
E ------3~-|

Riff 13

G --------------------------------|
D --------------------------------|
A 2-2-2-2-3-3-3-3---------5-5-3-3-|
E ----------------3-3-3-3---------|

Riff 14

G ----------------5-5-4-4-2-2-0-0-|
D --------------------------------|
A 2-2-2-2-3-3-3-3-----------------|
E --------------------------------|

Riff 15

G --------------------------|
D --------------------------|
A 3-3-3-3-3-3-3-3-3-3-3-3-3-|
E --------------------------|

Pause until 02:36
Riff 16

G -----
D -----
A 5\(2)
E -----

G ----------------------|
D ----------------------|
A 222---333-------------|
E ------------333---333-|

G ------------------------|
D ------------------------|
A 222---333--------5553-2-|
E ------------333---------|

G ---------------------------------|
D ---------------------------------|
A 2222222233333333-----------------|
E ----------------3333333333333333-|

G -----------------------------------|
D ----------------55557777999910\----|(2)
A 2222222233333333-------------------|
E -----------------------------------|

G ----
D ----
A 2~3~
E ----
Sorry this is ridiculously long, but theres really no verse/chorus
Добавлено: 30.10.2013
Другие материалы по этой песне:
  • Аккорды и текст

Страница создана 30.10.2013
http://primanota.ru/chiodos/compromise-of-1984-chords.htm
Привет, Гость.
Предлагаем пройти революционный курс по гитаре.
Подарок от PrimaNota.Ru, забирай!