PrimaNota.ru - самый крупный в мире бесплатный архив песенных текстов, аккордов, табулатур и нот


Chiodos - Baby You Wouldnt Last One Minute On The Creek - таба, видео

Регистрация Запомнить меня
Войти через:  Facebook Google Twitter Vk Yandex Mail.ru

Chiodos - Baby You Wouldnt Last One Minute On The Creek - таба, видео

Печатать
Просмотров: 96
baby, you wouldn't last one minute on the creek

by chiodos

tabbed by fernando piedra, chuck norris, and einstein

drop d

...lets just stop...
|-----------------------------------|
|---10-8-6-5-6-8-6---6-6---6-6---6--|
|--7--7-7-7-7-7-7-7-7-7-7-7-7-7-7-7-|      
|-0----------------8-----7-----7----|  a couple of times 
|-----------------------------------|
|-----------------------------------|

gt 1&2
|-----------------------------------|
|-----------------------------------|
|-7777-9999-1010-10101010-9999------|
|-xxxx-xxxx-x-x--x-x-x-x--xxxx------|
|-5555-7777-8-8--8-8-8-8--7777------|
|-----------------------------------|
						gt 1(2x)
|-----------------------------------|		gt 2(1x)
|-----------------------------------|
|-7777-9999-1010-14141414-12121212--|
|-xxxx-xxxx-x-x--x-x-x-x--x-x-x-x---|
|-5555-7777-8-8--12121212-10101010--|
|-----------------------------------|


gt 2 
    ...turn around and head in.... 
|-----------------------------------------------------------|
|-----------------------------------------------------------|
|-77777777-14141414-12121212-99999999-10101010-5555555------|
|-xxxxxxxx-x-x-x-x--x-x-x-x--xxxxxxxx-x-x-x-x--xxxxxxx------|
|-55555555-12121212-10101010-77777777-8-8-8-8--3333333------|
|-----------------------------------------------------------|

|-----------------------------------------------------------|
|-----------------------------------------------------------|
|-77777777-14141414-12121212-161616161616-19191919191919----|
|-xxxxxxxx-x-x-x-x--x-x-x-x--x-x-x-x-x-x--x-x-x-x-x-x-x-----|
|-55555555-12121212-10101010-141414141414-17171717171717----|
|-----------------------------------------------------------|


verse

gt 1 (2x)
         ....we said what we feel....
|-----------------------------------------------------------|
|-----------------------------------------------------------|
|-7777------7777------3333333-999999999999------------------|
|-xxxx-0000-xxxx-0000-xxxxxxx-xxxxxxxxxxxx------------------|
|-5555-0000-5555-0000-1111111-777777777777------------------|
|------0000------0000---------------------------------------|
p.m.   ....      ....

|-----------------------------------------------------------|
|-----------------------------------------------------------|
|-7777------7777------3333333-5555555-----------------------|
|-xxxx-0000-xxxx-0000-xxxxxxx-xxxxxxx-----------------------|
|-5555-0000-5555-0000-1111111-3333333-----------------------|
|------0000------0000---------------------------------------|
p.m.   ....      ....

gt 2 (2x)
         ...we said what we feel...
|-----------------------------------------------------------|
|-----------------------------------------------------------|
|-7777------7777------3333333-9999999-1414141414------------|
|-xxxx-0000-xxxx-0000-xxxxxxx-xxxxxxx-x-x-x-x-x-------------|
|-5555-0000-5555-0000-1111111-7777777-1212121212------------|
|------0000------0000---------------------------------------|
p.m.   ....      ....

|-----------------------------------------------------------|
|-----------------------------------------------------------|
|-7777------7777------3333333-5555555-----------------------|
|-xxxx-0000-xxxx-0000-xxxxxxx-xxxxxxx-----------------------|
|-5555-0000-5555-0000-1111111-3333333-----------------------|
|------0000------0000---------------------------------------|
p.m.   ....      ....




gt 1
     ...this is probably...
|---------------------------------------------------------------------------------------|
|---------------------------------------------------------------------------------------|
|-77777-55555-777-777-777-------------777777-77777-777-999-101010-999-------------------|
|-xxxxx-xxxxx-xxx-xxx-xxx-------------xxxxxx-xxxxx-xxx-xxx-x-x-x--xxx-------------------|
|-55555-33333-555-555-555-------------555555-33333-555-777-8-8-8--777-------------------|
|-------------------------5h6p5p0h3p0---------------------------------------------------|

|---------------------------------------------------------------------------------------|
|---------------------------------------------------------------------------------------|
|-77777-55555-777-888-101010------------77777-55555-101010-141414-101010-555------------|
|-xxxxx-xxxxx-xxx-xxx-x-x-x-------------xxxxx-xxxxx-x-x-x--x-x-x--x-x-x--xxx------------|
|-55555-33333-555-777-8-8-8-------------55555-33333-8-8-8--121212-8-8-8--333------------|
|---------------------------5h6p5p0h3p0-------------------------------------------------|

gt 2
    ...this is probably...
|---------------------------------------------------------------------------------------|
|---------------------------------------------------------------------------------------|
|-77777-55555-777-777-777-------------777777-77777-101010121212101010999555-------------|
|-xxxxx-xxxxx-xxx-xxx-xxx-------------xxxxxx-xxxxx-x-x-x-x-x-x-x-x-x-xxxxxx-------------|
|-55555-33333-555-555-555-------------555555-33333-8-8-8-1010108-8-8-777333-------------|
|-------------------------5h6p5p0h3p0---------------------------------------------------|

|---------------------------------------------------------------------------------------|
|---------------------------------------------------------------------------------------|
|-77777-55555-777-888-101010------------77777-55555-10101010101414141414101010101055555-|
|-xxxxx-xxxxx-xxx-xxx-x-x-x-------------xxxxx-xxxxx-x-x-x-x-x-x-x-x-x-x-x-x-x-x-x-xxxxx-|
|-55555-33333-555-777-8-8-8-------------55555-33333-8-8-8-8-8-12121212128-8-8-8-8-33333-|
|---------------------------5h6p5p0h3p0-------------------------------------------------|




gt 1 & 2
        ....ignoring what we felt
|---------------------------------------------------------------------------------------|
|---------------------------------------------------------------------------------------|
|-777-777-777-777-999-999-999-999-101010-101010-101010-101010-12121212141414145555------|
|-xxx-xxx-xxx-xxx-xxx-xxx-xxx-xxx-x-x-x--x-x-x--x-x-x--x-x-x--x-x-x-x-x-x-x-x-xxxx------|
|-555-555-555-555-777-777-777-777-8-8-8--8-8-8--8-8-8--8-8-8--10101010121212123333------|
|---------------------------------------------------------------------------------------|

|---------------------------------------------------------------------------------------|
|---------------------------------------------------------------------------------------|
|-777-777-777-777-999-999-999-999-101010-101010-101010-101010-121212125555--------------|
|-xxx-xxx-xxx-xxx-xxx-xxx-xxx-xxx-x-x-x--x-x-x--x-x-x--x-x-x--x-x-x-x-xxxx--------------|
|-555-555-555-555-777-777-777-777-8-8-8--8-8-8--8-8-8--8-8-8--101010103333--------------|
|---------------------------------------------------------------------------------------|



gt 1
     ...this is probably...
|---------------------------------------------------------------------------------------|
|---------------------------------------------------------------------------------------|
|-77777-55555-777-777-777-------------777777-77777-777-999-101010-999-------------------|
|-xxxxx-xxxxx-xxx-xxx-xxx-------------xxxxxx-xxxxx-xxx-xxx-x-x-x--xxx-------------------|
|-55555-33333-555-555-555-------------555555-33333-555-777-8-8-8--777-------------------|
|-------------------------5h6p5p0h3p0---------------------------------------------------|

|---------------------------------------------------------------------------------------|
|---------------------------------------------------------------------------------------|
|-77777-55555-777-888-101010------------77777-55555-101010-101010-101010-101010---------|
|-xxxxx-xxxxx-xxx-xxx-x-x-x-------------xxxxx-xxxxx-x-x-x--x-x-x--x-x-x--x-x-x----------|
|-55555-33333-555-777-8-8-8-------------55555-33333-8-8-8--8-8-8--8-8-8--8-8-8----------|
|---------------------------5h6p5p0h3p0-------------------------------------------------|

gt 2
    ...this is probably...
|---------------------------------------------------------------------------------------|
|---------------------------------------------------------------------------------------|
|-77777-55555-777-777-777-------------777777-77777-101010121212101010999555-------------|
|-xxxxx-xxxxx-xxx-xxx-xxx-------------xxxxxx-xxxxx-x-x-x-x-x-x-x-x-x-xxxxxx-------------|
|-55555-33333-555-555-555-------------555555-33333-8-8-8-1010108-8-8-777333-------------|
|-------------------------5h6p5p0h3p0---------------------------------------------------|

|---------------------------------------------------------------------------------------|
|---------------------------------------------------------------------------------------|
|-77777-55555-777-888-101010------------77777-55555-141414161616171717191919------------|
|-xxxxx-xxxxx-xxx-xxx-x-x-x-------------xxxxx-xxxxx-x-x-x-x-x-x-x-x-x-x-x-x-------------|
|-55555-33333-555-777-8-8-8-------------55555-33333-121212141414151515171717------------|
|---------------------------5h6p5p0h3p0-------------------------------------------------|


gt 1 (2x)
         ...we said what we feel...
|--------------------------------------------------|
|--------------------------------------------------|
|-7777------7777------3333333-999999999999---------|
|-xxxx-0000-xxxx-0000-xxxxxxx-xxxxxxxxxxxx---------|
|-5555-0000-5555-0000-1111111-777777777777---------|
|------0000------0000------------------------------|
p.m.   ....      ....

|--------------------------------------------------|
|--------------------------------------------------|
|-7777------7777------3333333-5555555--------------|
|-xxxx-0000-xxxx-0000-xxxxxxx-xxxxxxx--------------|
|-5555-0000-5555-0000-1111111-3333333--------------|
|------0000------0000------------------------------|
p.m.   ....      ....

gt 2 (2x)
	  ...we said what we feel...
|--------------------------------------------------|
|--------------------------------------------------|
|-7777------7777------3333333-9999999-1414141414---|
|-xxxx-0000-xxxx-0000-xxxxxxx-xxxxxxx-x-x-x-x-x----|
|-5555-0000-5555-0000-1111111-7777777-1212121212---|
|------0000------0000------------------------------|
p.m.   ....      ....

|--------------------------------------------------|
|--------------------------------------------------|
|-7777------7777------3333333-5555555--------------|
|-xxxx-0000-xxxx-0000-xxxxxxx-xxxxxxx--------------|
|-5555-0000-5555-0000-1111111-3333333--------------|
|------0000------0000------------------------------|
p.m.   ....      ....


|-----------------------------------|
|---10-8-6-5-6-8-6---6-6---6-6---6--|
|--7--7-7-7-7-7-7-7-7-7-7-7-7-7-7-7-|      
|-0----------------8-----7-----7----|  a couple of times again
|-----------------------------------|
|-----------------------------------|


gt 1 & 2
|----------------------------------------------------------|
|----------------------------------------------------------|
|-------10101010-9999-12121212-------14141414-12-10-12109--|
|-00000-x-x-x-x--xxxx-x-x-x-x--00000-x-x-x-x--x--x--x-x-x--| (4x)
|-00000-8-8-8-8--7777-10101010-00000-12121212-10-8--108-7--|
|-00000------------------------00000-----------------------|
  .....			       .....

|-------------------------------------------------|
|-----------------------------------------2-------|
|---------3-2-3-5-2-3-------------3-2-3-5---5-3-2-|
|-0-0-0-0-------------3h5-0-0-0-0-----------------|
|-0-0-0-0-----------------0-0-0-0-----------------|
|-0-0-0-0-----------------0-0-0-0-----------------|

|------------------------------------------------------------------------------|
|------------------------------------------2--------------3-2------------------|
|---------3-2-3-5-3-2--------------3-2-3-5---5-3-2------------5-3-2~-3~-2~-----|
|-0-0-0-0-------------3h5--0-0-0-0-----------------0-0-0-0-----------------3~--|
|-0-0-0-0------------------0-0-0-0-----------------0-0-0-0---------------------|
|-0-0-0-0------------------0-0-0-0-----------------0-0-0-0---------------------|


gt 1 & 2
        ....ignoring what we felt
|----------------------------------------------------------------------------------|
|----------------------------------------------------------------------------------|
|-777-777-777-777-999-999-999-999-101010-101010-101010-101010-12121212141414145555-|
|-xxx-xxx-xxx-xxx-xxx-xxx-xxx-xxx-x-x-x--x-x-x--x-x-x--x-x-x--x-x-x-x-x-x-x-x-xxxx-|
|-555-555-555-555-777-777-777-777-8-8-8--8-8-8--8-8-8--8-8-8--10101010121212123333-|
|----------------------------------------------------------------------------------|

|--------------------------------------------------------------------------------------|
|--------------------------------------------------------------------------------------|
|-777-777-777-777-999-999-999-999-101010-101010-101010-101010-121212121616161619191919-|
|-xxx-xxx-xxx-xxx-xxx-xxx-xxx-xxx-x-x-x--x-x-x--x-x-x--x-x-x--x-x-x-x-x-x-x-x-x-x-x-x--|
|-555-555-555-555-777-777-777-777-8-8-8--8-8-8--8-8-8--8-8-8--101010101414141417171717-|
|--------------------------------------------------------------------------------------|

ending
|---------| |---------|
|---------| |---------|
|-7777----| |---------|
|-xxxx----| |-0000----|
|-5555----| |-0000----|
|---------| |-0000----|
	      ....

isnt this a really good song or whatchusay!!!!
Добавлено: 16.07.2013
Другие материалы по этой песне:
  • Аккорды и текст

Страница создана 16.07.2013
http://primanota.ru/chiodos/baby-you-wouldnt-last-one-minute-on-the-creek-chords.htm
Привет, Гость.
Предлагаем пройти революционный курс по гитаре.
Подарок от PrimaNota.Ru, забирай!