PrimaNota.ru - самый крупный в мире бесплатный архив песенных текстов, аккордов, табулатур и нот


Chiodos - Baby, You Wouldn'T Last A Minute On The Creek - текст песни, таба, бас-таба, видео

Регистрация Запомнить меня
Войти через:  Facebook Google Twitter Vk Yandex Mail.ru

Chiodos - Baby, You Wouldn'T Last A Minute On The Creek - текст песни, таба, бас-таба, видео

Печатать
Просмотров: 167
Уроки эстрадного вокала в Санкт-Петербурге
Song:Baby, You Wouldn't Last A Minute On The Creek
Artist:Chiodos
Album:Alls Well That Ends Well
Tunning:Drop D (D-A-D-G-B-E)

heres another song that didn't have a decent tab to
go along with it

I tabbed out the entire song, its all there
if you have any corrections please notify me

Rate/Comment

Intro
E|-----5-----------------------------------------------------------|
B|---------8---6---5---6---8---6-------6---6-------5---5-------5---|
G|---7---7---7---7---7---7---7---7---7---7---7---7---7---7---7---7-|
D|-0-------------------------------8-----------5-----------5-------|
A|-----------------------------------------------------------------|
D|-----------------------------------------------------------------|

|-----5----------------------------------------------------8--|
|---------8---6---5---6---8---6-------6---6-------5---5-------|
|---7---7---7---7---7---7---7---7---7---7---7---7---7---------|
|-0-------------------------------8-----------5---------------|
|-------------------------------------------------------------|
|-------------------------------------------------------------|

|-----5-----------------------------------------------------------|
|---------8---6---5---6---8---6-------6---6-------5---5-------5---|
|---7---7---7---7---7---7---7---7---7---7---7---7---7---7---7---7-|
|-0-------------------------------8-----------5-----------5-------|
|-----------------------------------------------------------------|
|-----------------------------------------------------------------|

|-----5-------------------------------------------|
|---------8---6---5---6---8---6-------6---6-------|
|---7---7---7---7---7---7---7---7---7---7---7-----|
|-0-------------------------------8-----------5---| x
|-------------------------------------------------|
|-------------------------------------------------|


guitar I
|--------------------------------------------------------|
|--------------------------------------------------------|
|-7-7-7-7----9-9-9-9----10-10----10-10-10-10-----9-9-9-9-|
|-x-x-x-x----x-x-x-x----x--x-----x--x--x--x------x-x-x-x-|
|-5-5-5-5----7-7-7-7----8--8-----8--8--8--8------7-7-7-7-|
|--------------------------------------------------------|
|
|guitar II
|--------------------------------------------------------|
|--------------------------------------------------------|
|-7-7-7-7----7-7-7-7-------------------------------------|
|-7-7-7-7----7-7-7-7----8--8-----5-5-5-5-----5-5-5-5-----|
|-5-5-5-5----5-5-5-5----8--8-----5-5-5-5-----5-5-5-5-----|
|-----------------------8--8-----5-5-5-5-----5-5-5-5-----|

|-----------------------------------------------------------|
|-----------------------------------------------------------|
|-7-7-7-7----9-9-9-9----10-10----14-14-14-14----12-12-12-12-|
|-x-x-x-x----x-x-x-x----x--x-----x--x--x--x-----x--x--x--x--|
|-5-5-5-5----7-7-7-7----8--8-----12-12-12-12----10-10-10-10-|
|-----------------------------------------------------------|
|
|
|-----------------------------------------------------------|
|-----------------------------------------------------------|
|-7-7-7-7----7-7-7-7----------------------------------------|
|-7-7-7-7----7-7-7-7----8--8-----5-5-5-5-----5-5-5-5--------|
|-5-5-5-5----5-5-5-5----8--8-----5-5-5-5-----5-5-5-5--------|
|-----------------------8--8-----5-5-5-5-----5-5-5-5--------|

Verse I
Guitar I
|---------------------------------------------------------------------------------------|
|---------------------------------------------------------------------------------------|
|-7-7-7-7-7-7/14-14-14-14-14-14-12-12-12-12-10-10-10-10-10-10-12-12-12-12-12-12\5-5-5-5-|
|-x-x-x-x-x-x-x--x--x--x--x--x--x--x--x--x--x--x--x--x--x--x--x--x--x--x--x--x--x-x-x-x-|
|-5-5-5-5-5-5/12-12-12-12-12-12-10-10-10-10-8--8--8--8--8--8--10-10-10-10-10-10\3-3-3-3-|
|---------------------------------------------------------------------------------------|
|
|Guitar II
|---------------------------------------------------------------------------------------|
|---------------------------------------------------------------------------------------|
|-7-7-7-7-----7-7-7-7-------------------------------------------------------------------|
|-7-7-7-7-----7-7-7-7-----------8--8---------5-5-5-5---------5-5-5-5--------------------|
|-5-5-5-5-----5-5-5-5-----------8--8---------5-5-5-5---------5-5-5-5--------------------|
|-------------------------------8--8---------5-5-5-5---------5-5-5-5--------------------|

|---------------------------------------------------------------------------------------|
|---------------------------------------------------------------------------------------|
|-7-7-7-7-7-7/14-14-14-14-14-14-12-12-12-12-17-17-17-17-17-17-19-19-19-19-19-19-19-19---|
|-x-x-x-x-x-x-x--x--x--x--x--x--x--x--x--x--x--x--x--x--x--x--x--x--x--x--x--x--x--x----|
|-5-5-5-5-5-5/12-12-12-12-12-12-10-10-10-10-15-15-15-15-15-15-17-17-17-17-17-17-17-17---|
|---------------------------------------------------------------------------------------|
|
|
|---------------------------------------------------------------------------------------|
|---------------------------------------------------------------------------------------|
|-7-7-7-7-----7-7-7-7-------------------------------------------------------------------|
|-7-7-7-7-----7-7-7-7-----------8--8---------5-5-5-5---------5-5-5-5--------------------|
|-5-5-5-5-----5-5-5-5-----------8--8---------5-5-5-5---------5-5-5-5--------------------|
|-------------------------------8--8---------5-5-5-5---------5-5-5-5--------------------|

Verse II
Guitar I
|-------------------------------------------------------------|
|-6-6-6-6---------6-6-6-6-------------------------------------|
|-7-7-7-7---------7-7-7-7---------3--3-3/10-10-10-14-14-14-14-|
|-7-7-7-7---------7-7-7-7---------x--x-x-x--x--x--x--x--x--x--|
|-5-5-5-5-0-0-0-0-5-5-5-5-0-0-0-0-1--1-1/8--8--8--12-12-12-12-|
|---------0-0-0-0---------0-0-0-0-----------------------------|
|
|Guitar II
|-------------------------------------------------------------|
|-6-6-6-6---------6-6-6-6-------------------------------------|
|-7-7-7-7---------7-7-7-7---------3--3-3/10-10-10-10-10-10-10-|
|-7-7-7-7---------7-7-7-7---------x--x-x-x--x--x--x--x--x--x--|
|-5-5-5-5-0-0-0-0-5-5-5-5-0-0-0-0-1--1-1/8--8--8--8--8--8--8--|
|---------0-0-0-0---------0-0-0-0-----------------------------|

|-------------------------------------------------------------|
|-6-6-6-6---------6-6-6-6-------------------------------------|
|-7-7-7-7---------7-7-7-7---------3--3-3/10-10-10-14-14-14-14-|
|-7-7-7-7---------7-7-7-7---------x--x-x-x--x--x--x--x--x--x--|
|-5-5-5-5-0-0-0-0-5-5-5-5-0-0-0-0-1--1-1/8--8--8--12-12-12-12-|
|---------0-0-0-0---------0-0-0-0-----------------------------|
|
|
|-------------------------------------------------------------|
|-6-6-6-6---------6-6-6-6---------6--6-6-6--6--6--6--6--6--6--|
|-7-7-7-7---------7-7-7-7---------7--7-7-7--7--7--7--7--7--7--|
|-7-7-7-7---------7-7-7-7---------7--7-7-7--7--7--7--7--7--7--|
|-5-5-5-5-0-0-0-0-5-5-5-5-0-0-0-0-5--5-5-5--5--5--5--5--5--5--|
|---------0-0-0-0---------0-0-0-0-----------------------------|

|-------------------------------------------------------------|
|-6-6-6-6---------6-6-6-6-------------------------------------|
|-7-7-7-7---------7-7-7-7---------3--3-3/10-10-10-14-14-14-14-|
|-7-7-7-7---------7-7-7-7---------x--x-x-x--x--x--x--x--x--x--|
|-5-5-5-5-0-0-0-0-5-5-5-5-0-0-0-0-1--1-1/8--8--8--12-12-12-12-|
|---------0-0-0-0---------0-0-0-0-----------------------------|
|
|
|-------------------------------------------------------------|
|-6-6-6-6---------6-6-6-6-------------------------------------|
|-7-7-7-7---------7-7-7-7---------3--3-3/10-10-10-10-10-10-10-|
|-7-7-7-7---------7-7-7-7---------x--x-x-x--x--x--x--x--x--x--|
|-5-5-5-5-0-0-0-0-5-5-5-5-0-0-0-0-1--1-1/8--8--8--8--8--8--8--|
|---------0-0-0-0---------0-0-0-0-----------------------------|

|-------------------------------------------------------------|
|-6-6-6-6---------6-6-6-6-------------------------------------|
|-7-7-7-7---------7-7-7-7---------3--3-3/10-10-10-14-14-14-14-|
|-7-7-7-7---------7-7-7-7---------x--x-x-x--x--x--x--x--x--x--|
|-5-5-5-5-0-0-0-0-5-5-5-5-0-0-0-0-1--1-1/8--8--8--12-12-12-12-|
|---------0-0-0-0---------0-0-0-0-----------------------------|
|
|
|-------------------------------------------------------------|
|-6-6-6-6---------6-6-6-6---------6--6-6-6--6--6--6--6--6--6--|
|-7-7-7-7---------7-7-7-7---------7--7-7-7--7--7--7--7--7--7--|
|-7-7-7-7---------7-7-7-7---------7--7-7-7--7--7--7--7--7--7--|
|-5-5-5-5-0-0-0-0-5-5-5-5-0-0-0-0-5--5-5-5--5--5--5--5--5--5--|
|---------0-0-0-0---------0-0-0-0-----------------------------|

Chorus
Guitar I
|---------------------------------------------------------|
|---------------------------------------------------------|
|---------------------------------------------------------|
|-7--7--7-7--5--5-5--5-5--3-3-3--3-3-3--3-3-3-------------|
|-5--5--5-5--3--3-3--3-3--1-1-1--1-1-1--1-1-1-------------|
|---------------------------------------------0-3p0-2p0---|
|
|Guitar II
|---------------------------------------------------------|
|---------------------------------------------------------|
|-7--7--7-7--5--5-5--5-5--7-7-7--7-7-7--7-7-7-------------|
|-x--x--x-x--x--x-x--x-x--x-x-x--x-x-x--x-x-x-------------|
|-5--5--5-5--3--3-3--3-3--5-5-5--5-5-5--5-5-5-------------|
|---------------------------------------------0-3p0-2p0---|

|------------------------------------------------------------|
|------------------------------------------------------------|
|------------------------------------------------------------|
|-7--7--7-7--5--5-5--5-5--333333-22222-555555-333-222--------|
|-5--5--5-5--3--3-3--3-3------------------------------33-----|
|------------------------------------------------------------|
|
|
|------------------------------------------------------------|
|------------------------------------------------------------|
|-10--10--10-10-9--9-9--9-9----------------------------------|
|-x---x---x--x--x--x-x--x-x--333333-222222-555555-333-222----|
|-8---8---8--8--7--7-7--7-7-------------------------------33-|
|------------------------------------------------------------|

|---------------------------------------------------------|
|---------------------------------------------------------|
|---------------------------------------------------------|
|-7--7--7-7--5--5-5--5-5--3-3-3--3-3-3--3-3-3-------------|
|-5--5--5-5--3--3-3--3-3--1-1-1--1-1-1--1-1-1-------------|
|---------------------------------------------0-3p0-2p0---|
|
|
|-----------------------------------------------------------|
|-----------------------------------------------------------|
|-7--7--7-7--5--5-5--5-5--7-7-7--9-9-9--10-10-10------------|
|-x--x--x-x--x--x-x--x-x--x-x-x--x-x-x--x--x--x-------------|
|-5--5--5-5--3--3-3--3-3--5-5-5--7-7-7--8--8--8-------------|
|-----------------------------------------------0-3p0-2p0---|

|---------------------------------------------------------|
|---------------------------------------------------------|
|---------------------------------------------------------|
|-7--7--7-7--5--5-5--5-5--3-3-3--3-3-3--3-3-3-------------|
|-5--5--5-5--3--3-3--3-3--1-1-1--1-1-1--1-1-1-------------|
|---------------------------------------------------------|
|
|
|--------------------------------------------------------------------|
|--------------------------------------------------------------------|
|-10--10--10-10-9--9-9--9-9--10-10-10-10-14-14-14-14-9-9-9-9-5-5-5-5-|
|-x---x---x--x--x--x-x--x-x--x--x--x--x--x--x--x--x--x-x-x-x-x-x-x-x-|
|-8---8---8--8--7--7-7--7-7--8--8--8--8--12-12-12-12-7-7-7-7-3-3-3-3-|
|--------------------------------------------------------------------|

Bridge
Guitar I
|-----------------------------------------------------------------------|
|-----------------------------------------------------------------------|
|-----------------------------------------------------------------------|
|-7-7-7-(x4)---5-5-5-(x4)---2-2-2-(x4)---3-3-3-(x4)---------------------|
|-5-5-5--------3-3-3--------0-0-0--------1-1-1--------------------------|
|-----------------------------------------------------------------------|
|
|Guitar II
|-----------------------------------------------------------------------|
|-----------------------------------------------------------------------|
|-7-7-7-(x4)---9-9-9-(x2)-10-10-10-(x1)-9-9-9-(x1)-10-10-10-(x4)-12--9--|
|-x-x-x--------x-x-x------x--x--x-------x-x-x------x--x--x-------x---x--|
|-5-5-5--------7-7-7------8--8--8-------7-7-7------8--8--8-------10--7--|
|-----------------------------------------------------------------------|

|-----------------------------------------------------------------------|
|-----------------------------------------------------------------------|
|-----------------------------------------------------------------------|
|-7-7-7-(x4)---5-5-5-(x4)---2-2-2-(x4)---3-3-3-(x4)---------------------|
|-5-5-5--------3-3-3--------0-0-0--------1-1-1--------------------------|
|-----------------------------------------------------------------------|
|
|
|-----------------------------------------------------------------------|
|-----------------------------------------------------------------------|
|-7-7-7-(x4)---9-9-9-(x2)-10-10-10-(x1)-9-9-9-(x1)-10-10-10-(x4)-12--5--|
|-x-x-x--------x-x-x------x--x--x-------x-x-x------x--x--x-------x---x--|
|-5-5-5--------7-7-7------8--8--8-------7-7-7------8--8--8-------10--3--|
|-----------------------------------------------------------------------|


Chorus
Guitar I
|---------------------------------------------------------|
|---------------------------------------------------------|
|---------------------------------------------------------|
|-7--7--7-7--5--5-5--5-5--3-3-3--3-3-3--3-3-3-------------|
|-5--5--5-5--3--3-3--3-3--1-1-1--1-1-1--1-1-1-------------|
|---------------------------------------------0-3p0-2p0---|
|
|Guitar II
|---------------------------------------------------------|
|---------------------------------------------------------|
|-7--7--7-7--5--5-5--5-5--7-7-7--7-7-7--7-7-7-------------|
|-x--x--x-x--x--x-x--x-x--x-x-x--x-x-x--x-x-x-------------|
|-5--5--5-5--3--3-3--3-3--5-5-5--5-5-5--5-5-5-------------|
|---------------------------------------------0-3p0-2p0---|

|------------------------------------------------------------|
|------------------------------------------------------------|
|------------------------------------------------------------|
|-7--7--7-7--5--5-5--5-5--333333-22222-555555-333-222--------|
|-5--5--5-5--3--3-3--3-3------------------------------33-----|
|------------------------------------------------------------|
|
|
|------------------------------------------------------------|
|------------------------------------------------------------|
|-10--10--10-10-9--9-9--9-9----------------------------------|
|-x---x---x--x--x--x-x--x-x--333333-222222-555555-333-222----|
|-8---8---8--8--7--7-7--7-7-------------------------------33-|
|------------------------------------------------------------|

|---------------------------------------------------------|
|---------------------------------------------------------|
|---------------------------------------------------------|
|-7--7--7-7--5--5-5--5-5--3-3-3--3-3-3--3-3-3-------------|
|-5--5--5-5--3--3-3--3-3--1-1-1--1-1-1--1-1-1-------------|
|---------------------------------------------0-3p0-2p0---|
|
|
|-----------------------------------------------------------|
|-----------------------------------------------------------|
|-7--7--7-7--5--5-5--5-5--7-7-7--9-9-9--10-10-10------------|
|-x--x--x-x--x--x-x--x-x--x-x-x--x-x-x--x--x--x-------------|
|-5--5--5-5--3--3-3--3-3--5-5-5--7-7-7--8--8--8-------------|
|-----------------------------------------------0-3p0-2p0---|

|---------------------------------------------------------|
|---------------------------------------------------------|
|---------------------------------------------------------|
|-7--7--7-7--5--5-5--5-5--3-3-3--3-3-3--3-3-3-------------|
|-5--5--5-5--3--3-3--3-3--1-1-1--1-1-1--1-1-1-------------|
|---------------------------------------------------------|
|
|
|----------------------------------------------------------------------------|
|----------------------------------------------------------------------------|
|-10--10--10-10-9--9-9--9-9--10-10-10-10-14-14-14-14-17-17-17-17-19-19-19-19-|
|-x---x---x--x--x--x-x--x-x--x--x--x--x--x--x--x--x--x--x--x--x--x--x--x--x--|
|-8---8---8--8--7--7-7--7-7--8--8--8--8--12-12-12-12-15-15-15-15-17-17-17-17-|
|----------------------------------------------------------------------------|

Verse
Guitar I
|-------------------------------------------------------------|
|-6-6-6-6---------6-6-6-6-------------------------------------|
|-7-7-7-7---------7-7-7-7---------3--3-3/10-10-10-14-14-14-14-|
|-7-7-7-7---------7-7-7-7---------x--x-x-x--x--x--x--x--x--x--|
|-5-5-5-5-0-0-0-0-5-5-5-5-0-0-0-0-1--1-1/8--8--8--12-12-12-12-|
|---------0-0-0-0---------0-0-0-0-----------------------------|
|
|Guitar II
|-------------------------------------------------------------|
|-6-6-6-6---------6-6-6-6-------------------------------------|
|-7-7-7-7---------7-7-7-7---------3--3-3/10-10-10-10-10-10-10-|
|-7-7-7-7---------7-7-7-7---------x--x-x-x--x--x--x--x--x--x--|
|-5-5-5-5-0-0-0-0-5-5-5-5-0-0-0-0-1--1-1/8--8--8--8--8--8--8--|
|---------0-0-0-0---------0-0-0-0-----------------------------|

|-------------------------------------------------------------|
|-6-6-6-6---------6-6-6-6-------------------------------------|
|-7-7-7-7---------7-7-7-7---------3--3-3/10-10-10-14-14-14-14-|
|-7-7-7-7---------7-7-7-7---------x--x-x-x--x--x--x--x--x--x--|
|-5-5-5-5-0-0-0-0-5-5-5-5-0-0-0-0-1--1-1/8--8--8--12-12-12-12-|
|---------0-0-0-0---------0-0-0-0-----------------------------|
|
|
|-------------------------------------------------------------|
|-6-6-6-6---------6-6-6-6---------6--6-6-6--6--6--6--6--6--6--|
|-7-7-7-7---------7-7-7-7---------7--7-7-7--7--7--7--7--7--7--|
|-7-7-7-7---------7-7-7-7---------7--7-7-7--7--7--7--7--7--7--|
|-5-5-5-5-0-0-0-0-5-5-5-5-0-0-0-0-5--5-5-5--5--5--5--5--5--5--|
|---------0-0-0-0---------0-0-0-0-----------------------------|

|-------------------------------------------------------------|
|-6-6-6-6---------6-6-6-6-------------------------------------|
|-7-7-7-7---------7-7-7-7---------3--3-3/10-10-10-14-14-14-14-|
|-7-7-7-7---------7-7-7-7---------x--x-x-x--x--x--x--x--x--x--|
|-5-5-5-5-0-0-0-0-5-5-5-5-0-0-0-0-1--1-1/8--8--8--12-12-12-12-|
|---------0-0-0-0---------0-0-0-0-----------------------------|
|
|
|-------------------------------------------------------------|
|-6-6-6-6---------6-6-6-6-------------------------------------|
|-7-7-7-7---------7-7-7-7---------3--3-3/10-10-10-10-10-10-10-|
|-7-7-7-7---------7-7-7-7---------x--x-x-x--x--x--x--x--x--x--|
|-5-5-5-5-0-0-0-0-5-5-5-5-0-0-0-0-1--1-1/8--8--8--8--8--8--8--|
|---------0-0-0-0---------0-0-0-0-----------------------------|

|-------------------------------------------------------------|
|-6-6-6-6---------6-6-6-6-------------------------------------|
|-7-7-7-7---------7-7-7-7---------3--3-3/10-10-10-14-14-14-14-|
|-7-7-7-7---------7-7-7-7---------x--x-x-x--x--x--x--x--x--x--|
|-5-5-5-5-0-0-0-0-5-5-5-5-0-0-0-0-1--1-1/8--8--8--12-12-12-12-|
|---------0-0-0-0---------0-0-0-0-----------------------------|
|
|
|-------------------------------------------------------------|
|-6-6-6-6---------6-6-6-6-------------------------------------|
|-7-7-7-7---------7-7-7-7---------7--7-7-7--5--5--5--5--5--5--|
|-7-7-7-7---------7-7-7-7---------x--x-x-x--x--x--x--x--x--x--|
|-5-5-5-5-0-0-0-0-5-5-5-5-0-0-0-0-5--5-5-5--3--3--3--3--3--3--|
|---------0-0-0-0---------0-0-0-0-----------------------------|


Bridge
|-----5-----------------------------------------------------------|
|---------8---6---5---6---8---6-------6---6-------5---5-------5---|
|---7---7---7---7---7---7---7---7---7---7---7---7---7---7---7---7-|
|-0-------------------------------8-----------5-----------5-------|
|-----------------------------------------------------------------|
|-----------------------------------------------------------------|

|-----5----------------------------------------------------8--|
|---------8---6---5---6---8---6-------6---6-------5---5-------|
|---7---7---7---7---7---7---7---7---7---7---7---7---7---------|
|-0-------------------------------8-----------5---------------|
|-------------------------------------------------------------|
|-------------------------------------------------------------|

|-----5-----------------------------------------------------------|
|---------8---6---5---6---8---6-------6---6-------5---5-------5---|
|---7---7---7---7---7---7---7---7---7---7---7---7---7---7---7---7-|
|-0-------------------------------8-----------5-----------5-------|
|-----------------------------------------------------------------|
|-----------------------------------------------------------------|

|-----5-------------------------------------------|
|---------8---6---5---6---8---6-------6---6-------|
|---7---7---7---7---7---7---7---7---7---7---7-----|
|-0-------------------------------8-----------5---|
|-------------------------------------------------|
|-------------------------------------------------|


“like we never knew eachother at all”

breakdown
Both Guitars
|-------------------------------------------------------------------------------------|
|-------------------------------------------------------------------------------------|
|---------10-10-10-10---9-9-9/12-12-12-12---------14-14-14-14-----12-----10-----------|(x2)
|---------x--x--x--x----x-x-x-x--x--x--x----------x--x--x--x------x------x------------|
|-0-000-0-8--8--8--8--0-7-7-7/10-10-10-10-0-000-0-12-12-12-12--0--10--0--8--0--10-8-7-|
|-0-000-0-------------0-------------------0-000-0--------------0------0-----0---------|

Guitar I
|----------------------------------------------------------------------------------------|
|----------------------------------------------------------------------------------------|
|---------10-10-10-10----9-9-9/12-12-12-12-----------14-14-14-14-----12-----10-----------|
|---------x--x--x--x-----x-x-x-x--x--x--x------------x--x--x--x------x------x------------|
|-0-000-0-8--8--8--8--0--7-7-7/10-10-10-10--0-000-0--12-12-12-12--0--10--0--8--0--10-8-7-|
|-0-000-0-------------0---------------------0-000-0---------------0------0-----0---------|
|
|Guitar II
|---------------------------------------------------------------------------------------|
|---------------------------------------------------------------------------------------|
|---------7--7--7--7-----5-5-5/9--9--9--9-----------10-10-10-10-----9------7------------|
|---------x--x--x--x-----x-x-x-x--x--x--x-----------x--x--x--x------x------x------------|
|-0-000-0-5--5--5--5--0--3-3-3/7--7--7--7--0-000-0--8--8--8--8--0---7---0--5--0---7-5-3-|
|-0-000-0-------------0--------------------0-000-0--------------0-------0-----0---------|

|----------------------------------------------------------------------------------------|
|----------------------------------------------------------------------------------------|
|---------10-10-10-10----9-9-9/12-12-12-12-----------14-14-14-14-----12-----10-----------|
|---------x--x--x--x-----x-x-x-x--x--x--x------------x--x--x--x------x------x------------|
|-0-000-0-8--8--8--8--0--7-7-7/10-10-10-10--0-000-0--12-12-12-12--0--10--0--8--0--10-8-7-|
|-0-000-0-------------0---------------------0-000-0---------------0------0-----0---------|
|
|
|---------------------------------------------------------------------------------------|
|---------------------------------------------------------------------------------------|
|---------7--7--7--7-----5-5-5/9--9--9--9-----------10-10-10-10-----9------7------------|
|---------x--x--x--x-----x-x-x-x--x--x--x-----------x--x--x--x------x------x------------|
|-0-000-0-5--5--5--5--0--3-3-3/7--7--7--7--0-000-0--8--8--8--8--0---7---0--5--0---7-5-3-|
|-0-000-0-------------0--------------------0-000-0--------------0-------0-----0---------|

Bridge 2
Guitar I
|-----------------------------------------------------|
|-----------------------------------------------------|
|-----------------------------------------------------|
|----------3-2-3-5-3-2---------------------5-7-5------|
|-0-0-0-0--------------3/5--0-0-0-0--8-7-8-------8-7--|
|-0-0-0-0-------------------0-0-0-0-------------------|
|
|Guitar II
|-----------------------------------------------------|
|-----------------------------------------------------|
|-----------------------------------------------------|
|-----------------------------------------------------|
|-0-0-0-0------------------0-0-0-0--------------------|
|-0-0-0-0------------------0-0-0-0--------------------|

|-----------------------------------------------------|
|-----------------------------------------------------|
|-----------------------------------------------------|
|----------3-2-3-5-3-2---------------------5-7-5------|
|-0-0-0-0--------------3/5--0-0-0-0--8-7-8-------8-7--|
|-0-0-0-0-------------------0-0-0-0-------------------|
|
|
|-----------------------------------------------------|
|-----------------------------------------------------|
|-----------------------------------------------------|
|-----------------------------------------------------|
|-0-0-0-0------------------0-0-0-0--------------------|
|-0-0-0-0------------------0-0-0-0--------------------|

|------------------------------------------|
|------------------------------------------|
|------------------------------------------|
|----------8-7-5---------------------------|
|-0-0-0-0--------8-7~--8~--7~--4~----------|
|-0-0-0-0----------------------------------|
|
|
|------------------------------------------|
|------------------------------------------|
|------------------------------------------|
|------------------2---3---2---7-----------|
|-0-0-0-0----------0---1---0---4-----------|
|-0-0-0-0----------------------------------|

Bridge
Guitar I
|-----------------------------------------------------------------------|
|-----------------------------------------------------------------------|
|-----------------------------------------------------------------------|
|-7-7-7-(x4)---5-5-5-(x4)---2-2-2-(x4)---3-3-3-(x4)---------------------|
|-5-5-5--------3-3-3--------0-0-0--------1-1-1--------------------------|
|-----------------------------------------------------------------------|
|
|Guitar II
|-----------------------------------------------------------------------|
|-----------------------------------------------------------------------|
|-7-7-7-(x4)---9-9-9-(x4)-10-10-10-(x4)-12-12-12-12-9-9-9-9-------------|
|-x-x-x--------x-x-x------x--x--x-------x--x--x--x--x-x-x-x-------------|
|-5-5-5--------7-7-7------8--8--8-------10-10-10-10-7-7-7-7-------------|
|-----------------------------------------------------------------------|

|-----------------------------------------------------------------------|
|-----------------------------------------------------------------------|
|-----------------------------------------------------------------------|
|-7-7-7-(x4)---5-5-5-(x4)---2-2-2-(x4)---3-3-3-(x4)---------------------|
|-5-5-5--------3-3-3--------0-0-0--------1-1-1--------------------------|
|-----------------------------------------------------------------------|
|
|
|----------------------------------------------------------------------------------------|
|----------------------------------------------------------------------------------------|
|-7-7-7-(x4)---9-9-9-(x4)-10-10-10-(x4)-12-12-12-12-12-12-17-17-17-17-17-17-19-19-19-19--|
|-x-x-x--------x-x-x------x--x--x-------x--x--x--x--x--x--x--x--x--x--x--x--x--x--x--x---|
|-5-5-5--------7-7-7------8--8--8-------10-10-10-10-10-10-15-15-15-15-15-15-17-17-17-17--|
|----------------------------------------------------------------------------------------|


Last Verse
Guitar I
|-------------------------------------------------------------|
|-6-6-6-6---------6-6-6-6-------------------------------------|
|-7-7-7-7---------7-7-7-7---------3--3-3/10-10-10-14-14-14-14-|
|-7-7-7-7---------7-7-7-7---------x--x-x-x--x--x--x--x--x--x--|
|-5-5-5-5-0-0-0-0-5-5-5-5-0-0-0-0-1--1-1/8--8--8--12-12-12-12-|
|---------0-0-0-0---------0-0-0-0-----------------------------|
|
|Guitar II
|-------------------------------------------------------------|
|-6-6-6-6---------6-6-6-6-------------------------------------|
|-7-7-7-7---------7-7-7-7---------3--3-3/10-10-10-10-10-10-10-|
|-7-7-7-7---------7-7-7-7---------x--x-x-x--x--x--x--x--x--x--|
|-5-5-5-5-0-0-0-0-5-5-5-5-0-0-0-0-1--1-1/8--8--8--8--8--8--8--|
|---------0-0-0-0---------0-0-0-0-----------------------------|

|-------------------------------------------------------------|
|-6-6-6-6---------6-6-6-6-------------------------------------|
|-7-7-7-7---------7-7-7-7---------3--3-3/10-10-10-14-14-14-14-|
|-7-7-7-7---------7-7-7-7---------x--x-x-x--x--x--x--x--x--x--|
|-5-5-5-5-0-0-0-0-5-5-5-5-0-0-0-0-1--1-1/8--8--8--12-12-12-12-|
|---------0-0-0-0---------0-0-0-0-----------------------------|
|
|
|-------------------------------------------------------------|
|-6-6-6-6---------6-6-6-6---------6--6-6-6--6--6--6--6--6--6--|
|-7-7-7-7---------7-7-7-7---------7--7-7-7--7--7--7--7--7--7--|
|-7-7-7-7---------7-7-7-7---------7--7-7-7--7--7--7--7--7--7--|
|-5-5-5-5-0-0-0-0-5-5-5-5-0-0-0-0-5--5-5-5--5--5--5--5--5--5--|
|---------0-0-0-0---------0-0-0-0-----------------------------|

|-------------------------------------------------------------|
|-6-6-6-6---------6-6-6-6-------------------------------------|
|-7-7-7-7---------7-7-7-7---------3--3-3/10-10-10-14-14-14-14-|
|-7-7-7-7---------7-7-7-7---------x--x-x-x--x--x--x--x--x--x--|
|-5-5-5-5-0-0-0-0-5-5-5-5-0-0-0-0-1--1-1/8--8--8--12-12-12-12-|
|---------0-0-0-0---------0-0-0-0-----------------------------|
|
|
|-------------------------------------------------------------|
|-6-6-6-6---------6-6-6-6-------------------------------------|
|-7-7-7-7---------7-7-7-7---------3--3-3/10-10-10-10-10-10-10-|
|-7-7-7-7---------7-7-7-7---------x--x-x-x--x--x--x--x--x--x--|
|-5-5-5-5-0-0-0-0-5-5-5-5-0-0-0-0-1--1-1/8--8--8--8--8--8--8--|
|---------0-0-0-0---------0-0-0-0-----------------------------|

|-------------------------------------------------------------|
|-6-6-6-6---------6-6-6-6-------------------------------------|
|-7-7-7-7---------7-7-7-7---------3--3-3/10-10-10-14-14-14-14-|
|-7-7-7-7---------7-7-7-7---------x--x-x-x--x--x--x--x--x--x--|
|-5-5-5-5-0-0-0-0-5-5-5-5-0-0-0-0-1--1-1/8--8--8--12-12-12-12-|
|---------0-0-0-0---------0-0-0-0-----------------------------|
|
|
|-------------------------------------------------------------|
|-6-6-6-6---------6-6-6-6-------------------------------------|
|-7-7-7-7---------7-7-7-7---------7--7-7-7--5--5--5--5--5--5--|
|-7-7-7-7---------7-7-7-7---------x--x-x-x--x--x--x--x--x--x--|
|-5-5-5-5-0-0-0-0-5-5-5-5-0-0-0-0-5--5-5-5--3--3--3--3--3--3--|
|---------0-0-0-0---------0-0-0-0-----------------------------|


ending
Both Guitars
|-------------------------------------------------------------|
|-------------------------------------------------------------|
|-7-7-7-7-----------------------------------------------------|
|-x-x-x-x-----------------------------------------------------|
|-5-5-5-5----------------------------------------0-0-0-0------|
|------------------------------------------------0-0-0-0------|
Добавлено: 25.08.2013
Другие материалы по этой песне:
  • Аккорды и текст

Страница создана 26.07.2012
http://primanota.ru/chiodos/baby-you-wouldnt-last-a-minute-on-the-creek-chords.htm
Привет, Гость.
Предлагаем пройти революционный курс по гитаре.
Подарок от PrimaNota.Ru, забирай!