PrimaNota.ru - самый крупный в мире бесплатный архив песенных текстов, аккордов, табулатур и нот


Chiodos - Alls Well That Ends Well - таба, видео

Регистрация Запомнить меня
Войти через:  Facebook Google Twitter Vk Yandex Mail.ru

Chiodos - Alls Well That Ends Well - таба, видео

Печатать
Просмотров: 256
 Ok, I did copy and paste mostly all of these, but it is for a purpose not just for me 
so every one can learn all of these so that is all I have to say. And any ways It still 
me like 30 minutes to paste all of these and put them in order and Do some finishing
touches. And The name next to the song is the persons name that tabbed it. Sorry if i missed 
names just  post a comment
1.Prelude
2.All Nereids Beware-Unknown
3.One Day Woman Will All Become Monsters-eflex21
4.Expired In Goreville-Unknown
5.Baby, You Wouldn't Last A Minute on The Creek-SillyMaster
6.The Words “Best Friend” Become Redefined-Civeta.Dei
7.Interlude Pt.1
8.There's No Penguins In Alaska-TRpunk22
9.Interlude Pt.2
10.We're Gonna Have Us A Champagne Jam intro-thisisxxmypanic
11.No Hardcore Dancing In The Living Room-whatsaguitar?
12.Who's Sandie Jenkins-jonathanonfire
13.To Trixie And Reptile Thanks For Everything-empty handed
--------Bonus-Tracks----------------------
14.Baby, You Wouldn't Last A Minute on The Creek(Acoustic)-SillyMaster
15.Queen Of Diamonds (Acoustic Demo)-ME!
16.Lindsay Quit Lollygaging (Acoustic)

-----------------------------------------------------
              2.ALL NEREIDS BEWARE
-----------------------------------------------------

As recorded by Chiodos
(From the 2005 Album ALL'S WELL THAT ENDS WELL)


Transcribed by LosT.MoteL

 Words and Music by Chiodos

Gtr I (D A D G B E) - 'Jason Hale (Distortion)'
Gtr II (D A D G B E) - 'Pat McManaman (Distortion)'
Gtr III (D A D G B E) - 'Brad'
Gtr IV (D A D G B E) - 'Jason Hale (Clean)'
Gtr V (D A D G B E) - 'Pat McManaman (Clean)'


 Intro
  Q=201
       G5       Gm
 1/4  4/4
  Gtr I
        PM---|       PM     PM|         PM     PM---------|
  Q     S  S  E  E   E   E  E  E  E     E   E  E  E  S  S  E  Q
|----|------------------------------|----------------------------|
|----|------------------------------|----------------------------|
|----|------------------------------|----------------------------|
|----|-----------8-------8--------8-|-------8-----------------8--|
|----|-10-10-10-10-(10)-10-10-10-10-|-(10)-10-10-10-10-10-10-10--|
|----|------------------------------|----------------------------|
|
| Gtr II
| Q     W                              +W
|----|------------------------------|----------------------------|
|----|------------------------------|----------------------------|
|----|------------------------------|----------------------------|
|----|--5---------------------------|--(5)-----------------------|
|----|--5---------------------------|--(5)-----------------------|
|----|--5---------------------------|--(5)-----------------------|


  F5    F
  PM--|    PM   PM|      PM     PM
  S S E E  E  E E E E    E  E E E E E E E
|---------------------|-------------------|
|---------------------|-------------------|
|---------------------|-----------7h8p7---|
|-------7-----7-----7-|-----7-----------8-|
|-8-8-8-8-(8)-8-8-8-8-|-(8)-8-8-8---------|
|---------------------|-------------------|
|
| W                     +W
|---------------------|-------------------|
|---------------------|-------------------|
|---------------------|-------------------|
|-3-------------------|-(3)---------------|
|-3-------------------|-(3)---------------|
|-3-------------------|-(3)---------------|


  Eb5   Eb
  PM--|    PM   PM|       PM-|     PM----|
  S S E E  E  E E E  E    E   E  E E S S E Q
|----------------------|----------------------|
|----------------------|----------------------|
|-------------------10-|---------8---------7--|
|-------5-----5------x-|---------x---------5--|
|-6-6-6-6-(6)-6-6-6--8-|--8--(8)-6-6-6-6-6-6--|
|----------------------|----------------------|
|
| W                      +W
|----------------------|----------------------|
|----------------------|----------------------|
|----------------------|----------------------|
|-1--------------------|-(1)------------------|
|-1--------------------|-(1)------------------|
|-1--------------------|-(1)------------------|


  F5    F               F#5
  PM--|    PM   PM|      PM   PM------|
  S S E E  E  E E E E    E  E E E S S E Q
|---------------------|----------------------|
|---------------------|----------------------|
|-------2-----2-----2-|-----2-----------2----|
|-------3-----3-----4-|-----4-----------4----|
|-5-5-5-5-(5)-5-5-5-5-|-(5)-5-5-5-5-5-5-5----|
|---------------------|----------------------|
|
| W                      W
|---------------------|----------------------|
|---------------------|----------------------|
|---------------------|----------------------|
|-3-------------------|--4-------------------|
|-3-------------------|--4-------------------|
|-3-------------------|--4-------------------|


  G5             Gm
   PM------|             PM           PM---|
   S  S     E     E      E      E     E     E     E
|------------------------------------------------------|
|------------------------------------------------------|
|------------------------------------------------------|
|-----------------8-------------8-----------------8----|
|-10-10----10----10----(10)----10----10----10----10----|
|------------------------------------------------------|
|
|  W
|------------------------------------------------------|
|------------------------------------------------------|
|------------------------------------------------------|
|--5---------------------------------------------------|
|--5---------------------------------------------------|
|--5---------------------------------------------------|
|
| Gtr III
|  |----------------------12:8-----------------------|
|  E     E     E  E  E       E  E  E     E  E  E     E
|-15----13-------15-13---------15-13-------15-13-------|
|-------------15------------15----------15----------15-|
|------------------------------------------------------|
|------------------------------------------------------|
|------------------------------------------------------|
|------------------------------------------------------|


                                                      F5           F
    PM           PM------------------|                 PM-----|           PM          PM---|
    E      E     E     E     S  S     E     Q          S S    E     E     E      E    E     E    E
|---------------------------------------------------|---------------------------------------------------|
|---------------------------------------------------|---------------------------------------------------|
|---------------------------------------------------|---------------------------------------------------|
|----------8--------------------------------8-------|---------------7------------7---------------7------|
|-(10)----10----10----10----10-10----10----10-------|--8-8----8-----8----(8)-----8----8-----8----8------|
|---------------------------------------------------|---------------------------------------------------|
|
|  +W                                                  W
|---------------------------------------------------|---------------------------------------------------|
|---------------------------------------------------|---------------------------------------------------|
|---------------------------------------------------|---------------------------------------------------|
|--(5)----------------------------------------------|--3------------------------------------------------|
|--(5)----------------------------------------------|--3------------------------------------------------|
|--(5)----------------------------------------------|--3------------------------------------------------|
|
|   |--------------------12:8---------------------|    |-------------------12:8---------------------|
|   E   E     E  E  E     E  E     E     E  E  E  E    E    E    E  E  E      E  E  E    E  E  E    E
|--15--13-------15-13-------15----13-------15-13----|-15---13------15-13--------15-13------15-13--------|
|------------15----------15-------------15-------15-|-----------15-----------15---------15---------15---|
|---------------------------------------------------|---------------------------------------------------|
|---------------------------------------------------|---------------------------------------------------|
|---------------------------------------------------|---------------------------------------------------|
|---------------------------------------------------|---------------------------------------------------|


  F5                                             Eb5          Eb
   PM               PM                            PM-----|           PM          PM---|
   E     E     E    E     E    E     E    E       S S    E     E     E      E    E     E     E
|----------------------------------------------|--------------------------------------------------|
|----------------------------------------------|--------------------------------------------------|
|-------------------------7h===8p====7---------|--------------------------------------------10----|
|--------7--------------------------------8----|---------------5------------5----------------x----|
|-(8)----8-----8----8--------------------------|--6-6----6-----6----(6)-----6----6-----6-----8----|
|----------------------------------------------|--------------------------------------------------|
|
| +W                                              W
|----------------------------------------------|--------------------------------------------------|
|----------------------------------------------|--------------------------------------------------|
|----------------------------------------------|--------------------------------------------------|
|-(3)------------------------------------------|--1-----------------------------------------------|
|-(3)------------------------------------------|--1-----------------------------------------------|
|-(3)------------------------------------------|--1-----------------------------------------------|
|
|  |------------------12:8-------------------|    |--------------------12:8---------------------|
|  E   E    E  E  E    E  E  E    E  E  E    E    E    E    E  E  E      E  E  E    E  E  E     E
|-15--13------15-13------15-13------15-13------|-15---13------15-13--------15-13------15-13-------|
|----------15---------15---------15---------15-|-----------15-----------15---------15----------15-|
|----------------------------------------------|--------------------------------------------------|
|----------------------------------------------|--------------------------------------------------|
|----------------------------------------------|--------------------------------------------------|
|----------------------------------------------|--------------------------------------------------|


                                        G5/Eb
   PM----|            PM-----------|
   E      E      E    E     S S    E     Q
|---------------------------------------------------|
|---------------------------------------------------|
|----------------8-----------------------7----------|
|----------------x-----------------------5----------|
|--8-----(8)-----6----6-----6-6----6-----6----------|
|---------------------------------------------------|
|
| +W
|---------------------------------------------------|
|---------------------------------------------------|
|---------------------------------------------------|
|-(1)-----------------------------------------------|
|-(1)-----------------------------------------------|
|-(1)-----------------------------------------------|
|
|  |-------------------12:8--------------------|
|  E   E      E  E  E    E  E    E    E  E  E  E
|-15--13--------15-13------15---13------15-13-------|
|------------15---------15-----------15-------15----|
|---------------------------------------------------|
|---------------------------------------------------|
|---------------------------------------------------|
|---------------------------------------------------|


  Dm
  W           W          H    E E E E   W          W
|-----------|----------|--------------|----------|------||
|-----------|----------|--------------|----------|------||
|-----------|----------|------x-x-x-x-|----------|------||
|-3/--------|----------|------x-x-x-x-|----------|------||
|-5/--------|----------|------x-x-x-x-|----------|------||
|-----------|----------|--------------|----------|------||
|
| W           W          H    E E E E   W          W
|-----------|----------|--------------|----------|------||
|-----------|----------|--------------|----------|------||
|-----------|----------|--------------|----------|------||
|-----------|----------|------x-x-x-x-|----------|------||
|-3/--------|----------|------x-x-x-x-|----------|------||
|-3/--------|----------|------x-x-x-x-|----------|------||


   Verse
    D5                  Eb5
     Q   Q   E q    E    Q   Q   E q    E
||--------------------|-------------------|
||o-------------------|-------------------|
||---7---7---x-7----7-|--8---8---x-8----8-|
||---x---x---x-x----x-|--x---x---x-x----x-|
||o--5---5---x-5----5-|--6---6---x-6----6-|
||--------------------|-------------------|
|
|    Q   Q   E Q    E    Q   Q   E Q    E
||--------------------|-------------------|
||o-------------------|-------------------|
||--------------------|-------------------|
||---0---0---0-0----0-|--1---1---1-1----1-|
||o--0---0---0-0----0-|--1---1---1-1----1-|
||---0---0---0-0----0-|--1---1---1-1----1-|
|
|   Gtr III
|    Q   Q   Q    Q      Q   Q   Q    Q
||--------------------|-------------------|
||o-------------------|---------13--------|
||--12--14--15---14---|-14--15-------15---|
||--------------------|-------------------|
||o-------------------|-------------------|
||--------------------|-------------------|


  F5                    F#5
   Q   Q   E  q     E    Q   Q   E  q     E  3x
|---------------------|----------------------||
|---------------------|---------------------o||
|-10--10---x-10----10-|-11--11---x-11----11--||
|--x---x---x--x-----x-|--x---x---x--x-----x--||
|--8---8---x--8-----8-|--9---9---x--9-----9-o||
|---------------------|----------------------||
|
|  Q   Q   E  Q     E    Q   Q   E  Q     E  3x
|---------------------|----------------------||
|---------------------|---------------------o||
|---------------------|----------------------||
|--3---3---3--3-----3-|--4---4---4--4-----4--||
|--3---3---3--3-----3-|--4---4---4--4-----4-o||
|--3---3---3--3-----3-|--4---4---4--4-----4--||
|
|  Q   Q   Q     Q       Q   Q   Q     Q     3x
|---------------------|----------------------||
|-----13--15----13----|-16--15--------15----o||
|-15------------------|---------15-----------||
|---------------------|----------------------||
|---------------------|---------------------o||
|---------------------|----------------------||


  D5                  Eb5                 F5                    F#5
   Q   Q   E q    E    Q   Q   E q    E    Q   Q   E  q     E    q  H.
|-------------------|-------------------|---------------------|-----------||
|-------------------|-------------------|---------------------|-----------||
|--7---7---x-7----7-|--8---8---x-8----8-|-10--10---x-10----10-|-11--------||
|--x---x---x-x----x-|--x---x---x-x----x-|--x---x---x--x-----x-|--x--------||
|--5---5---x-5----5-|--6---6---x-6----6-|--8---8---x--8-----8-|--9--------||
|-------------------|-------------------|---------------------|-----------||
|
|  Q   Q   E Q    E    Q   Q   E Q    E    Q   Q   E  Q     E    q  H.
|-------------------|-------------------|---------------------|-----------||
|-------------------|-------------------|---------------------|-----------||
|-------------------|-------------------|---------------------|-----------||
|--0---0---0-0----0-|--1---1---1-1----1-|--3---3---3--3-----3-|--4--------||
|--0---0---0-0----0-|--1---1---1-1----1-|--3---3---3--3-----3-|--4--------||
|--0---0---0-0----0-|--1---1---1-1----1-|--3---3---3--3-----3-|--4--------||
|
|  Q   Q   Q    Q      Q   Q   Q    Q      Q   Q   Q     Q       q  H.
|-------------------|-------------------|---------------------|-----------||
|-------------------|---------13--------|-----13--15----16----|-19--------||
|-12--14--15---14---|-14--15-------15---|-15------------------|-----------||
|-------------------|-------------------|---------------------|-----------||
|-------------------|-------------------|---------------------|-----------||
|-------------------|-------------------|---------------------|-----------||


   Chorus
    G5
     PM|          PM---|            PM------------|
         |-3--|            |-3--------------------|
     E E E E  E E E  E E   E E  E E E  E E  E E
||-----------------------|----------------------|
||o----------------------|----------------------|
||-------7-8-10-7--------|-7-8-10-7-------------|
||-----8----------8----8-|----------8----8----8-|
||o-10--------------10---|------------10---10---|
||-----------------------|----------------------|
|
|    E E H           E E   H           q    q
||-----------------------|----------------------|
||o----------------------|----------------------|
||-----------------------|----------------------|
||---5-5-------------5-5-|-------------5----5---|
||o--5-5-------------5-5-|-------------5----5---|
||---5-5-------------5-5-|-------------5----5---|


  F5
 ---|          PM--|            PM--------|
      |-3--|           |-3----------------|
  E E E E  E E E E E   E E  E E E E E E E   4x
|--------------------|----------------------||
|--------------------|---------------------o||
|-----7-8-10-7-------|-7-8-10-7-------------||
|---8----------8---8-|----------8---8---8---||
|-8--------------8---|------------8---8----o||
|--------------------|----------------------||
|
| E E H          E E   H          q   q     4x
|--------------------|----------------------||
|--------------------|---------------------o||
|--------------------|----------------------||
|-3-3------------3-3-|------------3---3-----||
|-3-3------------3-3-|------------3---3----o||
|-3-3------------3-3-|------------3---3-----||


 Breakdown
  D5                                            N.C.
  W             +W              +W               Q   Q   Q   Q
|-------------|---------------|---------------|-16---------------|
|-------------|---------------|---------------|-----15------16---|
|-------------|---------------|---------------|---------14-------|
|-0-----------|-(0)-----------|-(0)-----------|------------------|
|-0-----------|-(0)-----------|-(0)-----------|------------------|
|-0-----------|-(0)-----------|-(0)-----------|------------------|
|
| q  q  q  q     q   q  q  q     q   q  q  q     q   q   q   q
|-4--4--4--4--|--4---4--4--4--|--5---5--5--5--|--7---7---7---7---|
|-3--3--3--3--|--3---3--3--3--|--4---4--4--4--|--6---6---6---6---|
|-------------|---------------|---------------|------------------|
|-------------|---------------|---------------|------------------|
|-------------|---------------|---------------|------------------|
|-------------|---------------|---------------|------------------|


  q  q  q  q    q  q  q  q     q   q   q   q     Q   Q   Q   Q
|-8--8--8--8--|-8--8--8--8--|-10--10--10--10--|-14------14-------|
|-7--7--7--7--|-7--7--7--7--|--9---9---9---9--|-----13------13---|
|-------------|-------------|-----------------|------------------|
|-------------|-------------|-----------------|------------------|
|-------------|-------------|-----------------|------------------|
|-------------|-------------|-----------------|------------------|
|
| q  q  q  q    q  q  q  q     q   q   q   q     q   q   q   q
|-4--4--4--4--|-4--4--4--4--|--5---5---5---5--|--7---7---7---7---|
|-3--3--3--3--|-3--3--3--3--|--4---4---4---4--|--6---6---6---6---|
|-------------|-------------|-----------------|------------------|
|-------------|-------------|-----------------|------------------|
|-------------|-------------|-----------------|------------------|
|-------------|-------------|-----------------|------------------|


  D5
  Gtrs I, II
  W            +W            +W            +H     Q  Q
|-----------|--------------|-------------|---------------|
|-----------|--------------|-------------|---------------|
|-----------|--------------|-------------|---------------|
|-0---------|--(0)---------|-(0)---------|-(0)----0--0---|
|-0---------|--(0)---------|-(0)---------|-(0)----0--0---|
|-0---------|--(0)---------|-(0)---------|-(0)----0--0---|
|
| Gtr III
| H    H        H     H       H     H       H     H
|-----------|-^17----------|-------------|---------------|
|-----------|-^18----------|--3-----3----|--3-----3------|
|-2---------|-^19----------|--3-----3----|--3-----3------|
|-3---------|---------3----|--5-----5----|--5-----5------|
|-5----5----|---------5----|--7-----7----|--7-----7------|
|------0----|---------0----|-------------|---------------|


  W            +W            +W            +W
|-----------|--------------|-------------|----------------|
|-----------|--------------|-------------|----------------|
|-----------|--------------|-------------|----------------|
|-0---------|--(0)---------|-(0)---------|-(0)------------|
|-0---------|--(0)---------|-(0)---------|-(0)------------|
|-0---------|--(0)---------|-(0)---------|-(0)------------|
|
| H    H        H     H       H     H       E  E E E H
|-----------|-^17----------|-------------|----------------|
|-----------|-^18----------|--3-----3----|----------------|
|-2---------|-^19----------|--3-----3----|--8--7-5--------|
|-3---------|---------3----|--5-----5----|---------8-7----|
|-5----5----|---------5----|--7-----7----|----------------|
|------0----|---------0----|-------------|----------------|


    Gtr I
    PM------|   PM----------------|   PM----|
    S S S S E E E E E E   S S S S E E E E E E
||----------------------|---------------------|
||o---------------------|---------------------|
||----------------------|---------------------|
||----------------------|---------------------|
||o-0-0-0-0-0---0-0---0-|-0-0-0-0-0---0-0---0-|
||--0-0-0-0-0---0-0---0-|-0-0-0-0-0---0-0---0-|
|
|   Gtr II
|   H           H         H           H
||----------------------|---------------------|
||o---------------------|---------------------|
||--7-----------7-------|-8-----------8-------|
||--x-----------x-------|-x-----------x-------|
||o-5-----------5-------|-6-----------6-------|
||----------------------|---------------------|


        Csus2/D   D5          Csus2/D
                  PM------|
   H     q   Q    S S S S E E  q   Q
|--------8---8--|--------------8---8----||
|--------x---x--|--------------x---x---o||
|--------7---7--|--------------7---7----||
|--0-----x---x--|--------------x---x----||
|--0-----5---5--|-0-0-0-0-0----5---5---o||
|--0------------|-0-0-0-0-0-------------||
|
|  H     q   Q    E   E   E E  q   Q
|-------10--10--|-------------10--10----||
|--------9---9--|--------------9---9---o||
|-10------------|-x---x---x-x-----------||
|--x------------|-x---x---x-x-----------||
|--8------------|-x---x---x-x----------o||
|---------------|-----------------------||


 Verse
  D5                    Eb5
   T    T    T    T      T    T    T    T
   E E  E E  E E  E E    E E  E E  E E  E E
|---------------------|---------------------|
|---------------------|---------------------|
|-12p0-14p0-15p0-14p0-|-14p0-15p0-17p0-15p0-|
|---------------------|---------------------|
|---------------------|---------------------|
|---------------------|---------------------|
|
|  W                     W
|---------------------|---------------------|
|---------------------|---------------------|
|---------------------|---------------------|
|---------------------|---------------------|
|--0------------------|--1------------------|
|--0------------------|--1------------------|


  F5                    F#5
   T    T    T    T      T    T    T    T
   E E  E E  E E  E E    E E  E E  E E  E E
|---------------------|----------------------|
|---------------------|----------------------|
|-15p0-20p0-19p0-17p0-|-15p0-17p0-15p0-14p0--|
|---------------------|----------------------|
|---------------------|----------------------|
|---------------------|----------------------|
|
|  W                     W
|---------------------|----------------------|
|---------------------|----------------------|
|---------------------|----------------------|
|---------------------|----------------------|
|--3------------------|--4-------------------|
|--3------------------|--4-------------------|


    D5                    Eb5
     T    T    T    T      T    T    T    T
     E E  E E  E E  E E    E E  E E  E E  E E
||----------------------|---------------------|
||o---------------------|---------------------|
||--12p0-14p0-15p0-14p0-|-14p0-15p0-17p0-15p0-|
||----------------------|---------------------|
||o---------------------|---------------------|
||----------------------|---------------------|
|
|    Q    Q    E Q    E    Q    Q    E Q    E
||----------------------|---------------------|
||o---------------------|---------------------|
||----------------------|---------------------|
||----------------------|---------------------|
||o--0----0----0-0----0-|--1----1----1-1----1-|
||---0----0----0-0----0-|--1----1----1-1----1-|


  F5                    F#5
   T    T    T    T      T    T    T    T
   E E  E E  E E  E E    E E  E E  E E  E E
|---------------------|----------------------||
|---------------------|---------------------o||
|-15p0-20p0-19p0-17p0-|-15p0-17p0-15p0-14p0--||
|---------------------|----------------------||
|---------------------|---------------------o||
|---------------------|----------------------||
|
|  Q    Q    E Q    E    Q    Q    E Q    E
|---------------------|----------------------||
|---------------------|---------------------o||
|---------------------|----------------------||
|---------------------|----------------------||
|--3----3----3-3----3-|--4----4----4-4----4-o||
|--3----3----3-3----3-|--4----4----4-4----4--||


 Guitar Break
  N.C.
  Gtr I
   ~~
   H         +Q     Q     W
|----------------------|-----------------|
|----------------------|-----------------|
|-12--------(12)\------|-----------------|
|----------------------|-----------------|
|----------------------|-----------------|
|----------------------|-----------------|
|
| Gtr III
|  Q   E  E   Q     Q     Q   Q   Q   Q
|----------------------|-----------------|
|-----15-13--15----13--|-15--13------13--|
|-12-------------------|---------15------|
|----------------------|-----------------|
|-10-------------------|-12------13------|
|----------------------|-----------------|


   W                   W
|-------------------|------------------||
|-------------------|------------------||
|-------------------|------------------||
|-------------------|------------------||
|-------------------|------------------||
|-------------------|------------------||
|
|  Q   E  E  Q   Q     Q   Q   Q   Q
|-------------------|------------------||
|-----13-11-13--11--|-13--11--10--11---||
|-10----------------|------------------||
|-------------------|----------0-------||
|--8----------------|------------------||
|-------------------|-13---------------||


                                         1.,2.
    Gtrs IV, V
     W                   W                 W
||--------------------|-----------------|-------------------|
||o-------------------|-----------------|-------------------|
||--------------------|-----------------|-------------------|
||--------------------|-----------------|-------------------|
||o-------------------|-----------------|-------------------|
||--------------------|-----------------|-------------------|
|
|   Gtr III
|    Q   E  E  Q   Q     Q   Q   Q   Q     Q   E  E  Q   Q
||--------------------|-----------------|-------------------|
||o-----15-13-15--13--|-15--13------13--|-----13-11-13--11--|
||--12----------------|---------15------|-10----------------|
||--------------------|-----------------|-------------------|
||o-10----------------|-12------13------|--8----------------|
||--------------------|-----------------|-------------------|


                     3.
   W               3x  Q   Q   Q   Q     Q   Q   Q   Q
|------------------||-----------------|-----------------||
|-----------------o||-10----------10--|---------10------||
|------------------||-----10----------|-10--------------||
|------------------||---------12------|-----12------12--||
|-----------------o||-----------------|-----------------||
|------------------||-----------------|-----------------||
|
|  Q   Q   Q   Q   3x  H       H         W
|------------------||---------17------|-18--------------||
|-13--11--10--11--o||-----------------|-----------------||
|------------------||-10--------------|-----------------||
|----------0-------||-----------------|-----------------||
|-----------------o||-----------------|-----------------||
|-13---------------||-----------------|-----------------||


 Bridge
  G5/D                              F5/C
   Q   Q   Q  Q     Q  Q   Q   Q     Q   Q   Q  Q     Q  Q   Q   Q
|--3---3---3--3--|--3--3---3---3--|--1---1---1--1--|--1--1---1---1---|
|--3---3---3--3--|--3--3---3---3--|--1---1---1--1--|--1--1---1---1---|
|----------------|----------------|----------------|-----------------|
|----------------|----------------|----------------|-----------------|
|----------------|----------------|----------------|-----------------|
|----------------|----------------|----------------|-----------------|
|
|  Q   Q   Q  Q     Q  Q   Q   Q     Q   Q   Q  Q     Q  Q   Q   Q
|-----11--10--8--|-----8------10--|-----11--10--8--|-----8------10---|
|----------------|-11-----11------|----------------|-11-----11-------|
|-10-------------|----------------|-10-------------|-----------------|
|----------------|----------------|----------------|-----------------|
|----------------|----------------|----------------|-----------------|
|----------------|----------------|----------------|-----------------|


  G5/D                              F5/C
   Q   Q   Q  Q     Q  Q   Q   Q      Q   Q  Q  Q     Q   Q   Q   Q
|--3---3---3--3--|--3--3---3---3--|---1---1--1--1--|--1---1---1---1---|
|--3---3---3--3--|--3--3---3---3--|---1---1--1--1--|--1---1---1---1---|
|----------------|----------------|----------------|------------------|
|----------------|----------------|----------------|------------------|
|----------------|----------------|----------------|------------------|
|----------------|----------------|----------------|------------------|
|
|  Q   Q   Q  Q     Q  Q   Q   Q     +W               Q   Q   Q   Q
|-----11--10--8--|-----8------10--|-(10)-----------|-17--17--18--18---|
|----------------|-11-----11------|----------------|------------------|
|-10-------------|----------------|----------------|------------------|
|----------------|----------------|----------------|------------------|
|----------------|----------------|----------------|------------------|
|----------------|----------------|----------------|------------------|


  G5/D
  Gtr IV
   E  E  E  E  E  E  E  E    E  E  E  E  E  E  E  E
|-15-15-15-15-15-15-15-15-|-15-15-15-15-15-15-15-15-|
|-15-15-15-15-15-15-15-15-|-15-15-15-15-15-15-15-15-|
|-------------------------|-------------------------|
|-------------------------|-------------------------|
|-------------------------|-------------------------|
|-------------------------|-------------------------|
|
| Gtr V
|  Q     Q     Q     Q       Q     Q     Q     Q
|--3-----3-----3-----3----|--3-----3-----3-----3----|
|--3-----3-----3-----3----|--3-----3-----3-----3----|
|-------------------------|-------------------------|
|-------------------------|-------------------------|
|-------------------------|-------------------------|
|-------------------------|-------------------------|
|
| Gtr III
|  E  E  E  E  E  E  E  E    E  E  E  E  E  E  E  E
|-18-18-17-17-15-15-15-15-|-18-18-17-17-15-15-15-15-|
|-------------------------|-------------------------|
|-------------------------|-------------------------|
|-------------------------|-------------------------|
|-------------------------|-------------------------|
|-------------------------|-------------------------|


  D5
   E  E  E  E  E  E  E  E    E  E  E  E  E  E  E  E
|-17-17-17-17-17-17-17-17-|-17-17-17-17-17-17-17-17--|
|-15-15-15-15-15-15-15-15-|-15-15-15-15-15-15-15-15--|
|-------------------------|--------------------------|
|-------------------------|--------------------------|
|-------------------------|--------------------------|
|-------------------------|--------------------------|
|
|  Q     Q     Q     Q       Q     Q     Q     Q
|--1-----1-----1-----1----|--1-----1-----1-----1-----|
|--1-----1-----1-----1----|--1-----1-----1-----1-----|
|-------------------------|--------------------------|
|-------------------------|--------------------------|
|-------------------------|--------------------------|
|-------------------------|--------------------------|
|
|  E  E  E  E  E  E  E  E    E  E  E  E  E  E  E  E
|-18-18-17-17-15-15-15-15-|-18-18-17-17-15-15-15-15--|
|-------------------------|--------------------------|
|-------------------------|--------------------------|
|-------------------------|--------------------------|
|-------------------------|--------------------------|
|-------------------------|--------------------------|


  Bb/D
   E  E  E  E  E  E  E  E    E  E  E  E  E  E  E  E
|-18-18-18-18-18-18-18-18-|-18-18-18-18-18-18-18-18-|
|-15-15-15-15-15-15-15-15-|-15-15-15-15-15-15-15-15-|
|-------------------------|-------------------------|
|-------------------------|-------------------------|
|-------------------------|-------------------------|
|-------------------------|-------------------------|
|
|  Q     Q     Q     Q       Q     Q     Q     Q
|--3-----3-----3-----3----|--3-----3-----3-----3----|
|--3-----3-----3-----3----|--3-----3-----3-----3----|
|-------------------------|-------------------------|
|-------------------------|-------------------------|
|-------------------------|-------------------------|
|-------------------------|-------------------------|
|
|  E  E  E  E  E  E  E  E    E  E  E  E  E  E  E  E
|-18-17-15----------------|-18-17-15----------------|
|----------18-16-15-------|----------18-16-15-------|
|-------------------17-15-|-------------------17-15-|
|-------------------------|-------------------------|
|-------------------------|-------------------------|
|-------------------------|-------------------------|


  Csus2/D
   E  E  E  E  E  E  E  E    E  E  E  E  E  E  E  E
|-20-20-20-20-20-20-20-20-|-20-20-20-20-20-20-20-20--||
|-15-15-15-15-15-15-15-15-|-15-15-15-15-15-15-15-15--||
|-------------------------|--------------------------||
|-------------------------|--------------------------||
|-------------------------|--------------------------||
|-------------------------|--------------------------||
|
|  Q     Q     Q     Q       Q     Q     Q     Q
|--1-----1-----1-----1----|--1-----1-----1-----1-----||
|--1-----1-----1-----1----|--1-----1-----1-----1-----||
|-------------------------|--------------------------||
|-------------------------|--------------------------||
|-------------------------|--------------------------||
|-------------------------|--------------------------||
|
|  E  E  E  E  E  E  E  E    E  E  E  E  E  E  E  E
|-18-17-15----------------|--------------------------||
|----------18-16-15-------|--------------------------||
|-------------------17-15-|-14-----------------------||
|-------------------------|----17-15-----------------||
|-------------------------|----------18-17-15-13-12--||
|-------------------------|--------------------------||


 Chorus
  Gm                                      F
  Gtr I
   E  E E E E E  E  E   E E E E  q   q    E E E E E E E E   E E E E q  q
|---------------------|-----------------|-----------------|----------------|
|---------------------|-----------------|-----------------|----------------|
|---------------------|-----------------|-----------------|----------------|
|--8--8-x-x-x-x--8--8-|-x-x-x-x--8---8--|-7-7-x-x-x-x-7-7-|-x-x-x-x-7--7---|
|-10-10-x-x-x-x-10-10-|-x-x-x-x-10--10--|-8-8-x-x-x-x-8-8-|-x-x-x-x-8--8---|
|---------------------|-----------------|-----------------|----------------|
|
| Gtr II
|  E  E E E E E  E  E   E E E E  q   q    E E E E E E E E   E E E E q  q
|---------------------|-----------------|-----------------|----------------|
|---------------------|-----------------|-----------------|----------------|
|---------------------|-----------------|-----------------|----------------|
|--5--5-x-x-x-x--5--5-|-x-x-x-x--5---5--|-3-3-x-x-x-x-3-3-|-x-x-x-x-3--3---|
|--5--5-x-x-x-x--5--5-|-x-x-x-x--5---5--|-3-3-x-x-x-x-3-3-|-x-x-x-x-3--3---|
|--5--5-x-x-x-x--5--5-|-x-x-x-x--5---5--|-3-3-x-x-x-x-3-3-|-x-x-x-x-3--3---|


  Gm
   E  E  E E E E  E  E    E E E  E E  E  Q
|----------------------|--------------------|
|----------------------|--------------------|
|-------10-7-----------|-10-7---------------|
|--8--8------x-x--8--8-|------x--8-x--8--8--|
|-10-10------x-x-10-10-|------x-10-x-10-10--|
|----------------------|--------------------|
|
|  E  E  E E E E  E  E    E E E  E q     q
|----------------------|--------------------|
|----------------------|--------------------|
|----------------------|--------------------|
|--5--5--x-x-x-x--5--5-|--x-x-x--x-5-----5--|
|--5--5--x-x-x-x--5--5-|--x-x-x--x-5-----5--|
|--5--5--x-x-x-x--5--5-|--x-x-x--x-5-----5--|


  F
  E E  E E E E E E    E E E E E E Q
|------------------|------------------|
|------------------|------------------|
|-----10-7---------|-10-7-------------|
|-7-7------x-x-7-7-|------x-7-x-7-7---|
|-8-8------x-x-8-8-|------x-8-x-8-8---|
|------------------|------------------|
|
| E E  E E E E E E    E E E E q   q
|------------------|------------------|
|------------------|------------------|
|------------------|------------------|
|-3-3--x-x-x-x-3-3-|--x-x-x-x-3---3---|
|-3-3--x-x-x-x-3-3-|--x-x-x-x-3---3---|
|-3-3--x-x-x-x-3-3-|--x-x-x-x-3---3---|


    G5
     PM|          PM---|            PM------------|
         |-3--|            |-3--------------------|
     E E E E  E E E  E E   E E  E E E  E E  E E
||-----------------------|----------------------|
||o----------------------|----------------------|
||-------7-8-10-7--------|-7-8-10-7-------------|
||-----8----------8----8-|----------8----8----8-|
||o-10--------------10---|------------10---10---|
||-----------------------|----------------------|
|
|    PM              PM
|    q   H           q     W
||-----------------------|----------------------|
||o----------------------|----------------------|
||-----------------------|----------------------|
||-----------------------|----------------------|
||o--5---------------5---|----------------------|
||---5---------------5---|----------------------|


  F5
 ---|          PM--|            PM--------|
      |-3--|           |-3----------------|
  E E E E  E E E E E   E E  E E E E E E E
|--------------------|----------------------||
|--------------------|---------------------o||
|-----7-8-10-7-------|-7-8-10-7-------------||
|---8----------8---8-|----------8---8---8---||
|-8--------------8---|------------8---8----o||
|--------------------|----------------------||
|
| PM             PM
| q   H          q     W
|--------------------|----------------------||
|--------------------|---------------------o||
|--------------------|----------------------||
|--------------------|----------------------||
|-3--------------3---|---------------------o||
|-3--------------3---|----------------------||


 Outro
  D5                                    N.C.
              3/4         4/4
  PM---------------|        ~~~
  H.      Q    Q   Q  Q     W           W
|------------|-----------|------------|-----------|
|------------|-----------|-[9]--------|-----------|
|------------|-----------|------------|-----------|
|------------|-----------|------------|-0---------|
|-0-------0--|-0---0-----|------------|-0---------|
|-0-------0--|-0---0-----|------------|-0---------|
|
| PM---------------|
| H.      Q    Q   Q  Q     W           W
|------------|-----------|--4---------|-----------|
|------------|-----------|--3---------|-----------|
|------------|-----------|------------|-----------|
|------------|-----------|------------|-0---------|
|-0-------0--|-0---0-----|------------|-0---------|
|-0-------0--|-0---0-----|------------|-0---------|
|
| Gtr III
| W            H.           W           H    H
|------------|-----------|------------|-----------|
|------------|-----------|------------|-3---------|
|------------|-----------|------------|-3---------|
|------------|-----------|------------|-5---------|
|------------|-----------|------------|------5----|
|------------|-----------|------------|------5----|


  Bb/G                         Cm/A
  Gtrs I, II
   +W            +W            +W
|--------------|-------------|--------------------|
|--------------|-------------|--------------------|
|--------------|-------------|--------------------|
|--(0)---------|-(0)---------|-(0)----------------|
|--(0)---------|-(0)---------|-(0)----------------|
|--(0)---------|-(0)---------|-(0)----------------|
|
| Gtr III
|   H     H       H     H       E   E  Q   Q   Q
|-^22----------|--5-----5----|-11-----------------|
|-^23----------|--4-----4----|-----13-------------|
|-^24-----3----|--5-----5----|--------14--15--14--|
|---------5----|--7-----7----|--------------------|
|--------------|-------------|--------------------|
|--------------|-------------|--------------------|


  D5
  Gtr I
  W              +W              +W            +W
|-------------|----------------|-------------|------------------|
|-------------|----------------|-------------|------------------|
|-------------|----------------|-------------|------------------|
|-0-----------|--(0)-----------|-(0)---------|-(0)--------------|
|-0-----------|--(0)-----------|-(0)---------|-(0)--------------|
|-0-----------|--(0)-----------|-(0)---------|-(0)--------------|
|
| Gtr II
| q  q  q  q      q   q  q  Q     W             W
|-4--4--4--4--|---4---4--4-----|-------------|------------------|
|-3--3--3--3--|---3---3--3-----|-------------|------------------|
|-------------|----------------|-------------|------------------|
|-------------|----------------|-------------|------------------|
|-------------|----------------|-------------|------------------|
|-------------|----------------|-------------|------------------|
|
| Gtr III
| H     H         H      H        H     H       E   E  Q   H
|-------------|-^22------------|--5-----5----|-11---------------|
|-3-----------|-^23------------|--4-----4----|-----13-----------|
|-3-----------|-^24------3-----|--5-----5----|--------14--15----|
|-5-----------|----------5-----|--7-----7----|------------------|
|-------5-----|----------------|-------------|------------------|
|-------5-----|----------------|-------------|------------------|


    Ebmaj7sus4                           F#maj7sus4
     q   q   q   q     q   q   q  Q    E  q   E  Q   Q    E  q   E  Q   Q   3x
||--10--10--10--10--|-10--10--10-----|---13--13-13--13--|---13--13-13--13---||
||o--9---9---9---9--|--9---9---9-----|---12--12-12--12--|---12--12-12--12--o||
||---8---8---8---8--|--8---8---8-----|---11--11-11--11--|---11--11-11--11---||
||------------------|----------------|------------------|-------------------||
||o-----------------|----------------|------------------|------------------o||
||------------------|----------------|------------------|-------------------||
|
|    q   q   q   q     q   q   q  Q    E  q   E  Q   Q    E  q   E  Q   Q   3x
||---4---4---4---4--|--4---4---4-----|----8---8--8---8--|----8---8--8---8---||
||o--3---3---3---3--|--3---3---3-----|----7---7--7---7--|----7---7--7---7--o||
||------------------|----------------|----6---6--6---6--|----6---6--6---6---||
||------------------|----------------|------------------|-------------------||
||o-----------------|----------------|------------------|------------------o||
||------------------|----------------|------------------|-------------------||


  D5        Ebmaj7D5s4      Ebmaj7D5s4      Ebmaj7D5s4      Ebmaj7sus4
  PM   PM|        PM-----|        PM   PM|        PM-----|
  Q  E E Q   Q    E Q  E Q   Q    Q  E E Q   Q    E Q  E Q   Q
|-----------10--|-----------10--|-----------10--|-----------10---|
|------------9--|------------9--|------------9--|------------9---|
|------------8--|------------8--|------------8--|------------8---|
|---------------|---------------|---------------|----------------|
|-0----0-0------|-0-0--0-0------|-0----0-0------|-0-0--0-0-------|
|-0----0-0------|-0-0--0-0------|-0----0-0------|-0-0--0-0-------|
|
| PM   PM|        PM-----|        PM   PM|        PM-----|
| Q  E E Q   Q    E Q  E Q   Q    Q  E E Q   Q    E Q  E Q   Q
|------------4--|------------4--|------------4--|------------4---|
|------------3--|------------3--|------------3--|------------3---|
|------------2--|------------2--|------------2--|------------2---|
|---------------|---------------|---------------|----------------|
|-0----0-0------|-0-0--0-0------|-0----0-0------|-0-0--0-0-------|
|-0----0-0------|-0-0--0-0------|-0----0-0------|-0-0--0-0-------|


  D5
  PM----|                       PM----|
  E E E E +H       +W           E E E E +H        W
|----------------|------------|----------------|--------------|
|----------------|------------|----------------|--------------|
|----------------|------------|----------------|--------------|
|----------------|------------|----------------|--------------|
|-0-0-0-0-(0)----|-(0)--------|-0-0-0-0-(0)----|-12\----------|
|-0-0-0-0-(0)----|-(0)--------|-0-0-0-0-(0)----|-12\----------|
|
| PM----|                       PM----|
| E E E E +H       +W           E E E E +H       +H     H
|----------------|------------|----------------|--------------|
|----------------|------------|----------------|--------------|
|----------------|------------|----------------|--------------|
|----------------|------------|----------------|--------7-----|
|-0-0-0-0-(0)----|-(0)--------|-0-0-0-0-(0)----|-(0)----7\----|
|-0-0-0-0-(0)----|-(0)--------|-0-0-0-0-(0)----|-(0)----7\----|


    D5                  Bbmaj7suD5                                 Bbmaj7sus4
    PM------------|             PM----------------------------|
    Q  Q  Q  Q    Q  Q   H      S S S E E. S S S E E.   S S S E E.  Q   Q
||--------------|-------------|-----------------------|----------------------|
||o-------------|-------------|-----------------------|----------------------|
||--------------|-------14----|-----------------------|------------14--15----|
||--------------|--------x----|-----------------------|-------------x---x----|
||o-0--0-----0--|-0-----12----|-0-0-0-0----0-0-0-0----|-0-0-0-0----12--13----|
||--0--0-----0--|-0-----------|-0-0-0-0----0-0-0-0----|-0-0-0-0--------------|
|
|   PM------------|             PM----------------------------|
|   Q  Q  Q  Q    Q  Q   H      S S S E E. S S S E E.   S S S E E.  H
||--------------|--------5----|-----------------------|-------------5--------|
||o-------------|--------4----|-----------------------|-------------4--------|
||--------------|--------3----|-----------------------|-------------3--------|
||--------------|-------------|-----------------------|----------------------|
||o-0--0-----0--|-0-----------|-0-0-0-0----0-0-0-0----|-0-0-0-0--------------|
||--0--0-----0--|-0-----------|-0-0-0-0----0-0-0-0----|-0-0-0-0--------------|


                             1.
  D5                  Bbmaj7suD5
  PM------------|
  Q  Q  Q  Q    Q  Q   H       Q   Q   Q  Q
|-------------|-------------|----------------|
|-------------|-------------|----------------|
|-------------|-------14----|-----14--15-----|
|-------------|--------x----|------x---x-----|
|-0--0-----0--|-0-----12----|--0--12--13--0--|
|-0--0-----0--|-0-----------|--0----------0--|
|
| PM------------|
| Q  Q  Q  Q    Q  Q   H       H       H
|-------------|--------5----|-14-------------|
|-------------|--------4----|---------10-----|
|-------------|--------3----|----------------|
|-------------|-------------|----------------|
|-0--0-----0--|-0-----------|----------------|
|-0--0-----0--|-0-----------|----------------|


                     2.
    Q  Q   Q   Q       Q   Q   Q   Q     Q   Q   Q   Q
|------------------||-----------------|------------------|
|-----------------o||-----------------|------------------|
|--17-----14--15---||-----14--15------|-17------14--15---|
|---x------x---x---||------x---x------|--x-------x---x---|
|--15--0--12--13--o||--0--12--13---0--|-15---0--12--13---|
|------0-----------||--0-----------0--|------0-----------|
|
|   H      H           Q   Q   Q   Q     Q   Q   Q   Q
|------------------||-14------15------|-16------17-------|
|-/16-------------o||-----13------14--|-----15------16---|
|----------0-------||-----------------|------------------|
|------------------||-----------------|------------------|
|-----------------o||-----------------|------------------|
|------------------||-----------------|------------------|


  D5 Amaj7sus4
  PM------------|
  Q  Q  Q  Q    Q  Q   H
|-------------|--------------|
|-------------|--------------|
|-------------|-------14-----|
|-------------|--------x-----|
|-0--0-----0--|-0-----12-----|
|-0--0-----0--|-0------------|
|
| q  q  q  q    q  q   q  q
|-4--4--4--4--|-4--4---4--4--|
|-3--3--3--3--|-3--3---3--3--|
|-2--2--2--2--|-2--2---2--2--|
|-------------|--------------|
|-------------|--------------|
|-------------|--------------|


  Ebmaj7sus4                      F#maj7sus4
   PM------------------------------------|
   S S S E    E.  S S S E    E.    S S S E    E.  Q   Q
|-------------------------------|------------------------|
|-------------------------------|------------------------|
|-------------------------------|----------------14--15--|
|-------------------------------|-----------------x---x--|
|--0-0-0-0--------0-0-0-0-------|--0-0-0-0-------12--13--|
|--0-0-0-0--------0-0-0-0-------|--0-0-0-0---------------|
|
|  q        q     q        q       q        q     q   q
|-10-------10----10-------10----|-13-------13----13--13--|
|--9--------9-----9--------9----|-12-------12----12--12--|
|--8--------8-----8--------8----|-11-------11----11--11--|
|-------------------------------|------------------------|
|-------------------------------|------------------------|
|-------------------------------|------------------------|


  Amaj7sus4                    Ebmaj7sus4        F#maj7sus4
  PM------------|
  Q  Q  Q  Q    Q  Q   H        Q   Q   Q   Q     Q   Q   H
|-------------|--------------|-----------------|------------------|
|-------------|--------------|-----------------|------------------|
|-------------|-------14-----|-----14--14------|-14--12--11-------|
|-------------|--------x-----|------x---x------|--x---x---x-------|
|-0--0-----0--|-0-----12-----|--0--12--12---0--|-12--10---9-------|
|-0--0-----0--|-0------------|--0-----------0--|------------------|
|
| q  q  q  q    q  q   q  q     q   q   q   q     q   q   q   q
|-4--4--4--4--|-4--4---4--4--|-10--10--10--10--|-13--13--13--13---|
|-3--3--3--3--|-3--3---3--3--|--9---9---9---9--|-12--12--12--12---|
|-2--2--2--2--|-2--2---2--2--|--8---8---8---8--|-11--11--11--11---|
|-------------|--------------|-----------------|------------------|
|-------------|--------------|-----------------|------------------|
|-------------|--------------|-----------------|------------------|


  N.C.                          N.C.
                   2/4         4/4
   Q.    Q.    Q     Q   Q       W
|-----------------|---------||--------------------|
|-----------------|---------||o-------------------|
|-14--------------|---------||--------------------|
|-------15----12--|-12S=17--||--------------------|
|-----------------|---------||o-------------------|
|-----------------|---------||--------------------|
|
| Gtr III
|  W                 H           Q   E  E  Q   Q
|-----------------|---------||--------------------|
|-----------------|---------||o-----15-13-15--13--|
|-----------------|---------||--12----------------|
|-----------------|---------||--------------------|
|-----------------|---------||o-10----------------|
|-----------------|---------||--------------------|


   W                 W
|-----------------|--------------------|
|-----------------|--------------------|
|-----------------|--------------------|
|-----------------|--------------------|
|-----------------|--------------------|
|-----------------|--------------------|
|
|  Q   Q   Q   Q     Q   E  E  Q   Q
|-----------------|--------------------|
|-15--13------13--|-----13-11-13--11---|
|---------15------|-10-----------------|
|-----------------|--------------------|
|-----------------|--8-----------------|
|-----------------|--------------------|


  Gtr III
   Q   Q   Q   Q       W          Wx7
|------------------||-----------|--------*|
|-13--11--10--11--o||-----------|--------*|
|------------------||-12--------|--------*|
|------------------||-----------|--------*|
|-----------------o||-10--------|--------*|
|------------------||-----------|--------*|


--------------------------------------------------------------------------------


Duration Legend
---------------
W - whole; H - half; Q - quarter; E - 8th; S - 16th; T - 32nd; X - 64th; a - acciaccatura
+ - note tied to previous; . - note dotted; .. - note double dotted
Uncapitalized letters represent notes that are staccato (1/2 duration)
Irregular groupings are notated above the duration line
Duration letters will always appear directly above the note/fret number it represents the
duration for.  Duration letters with no fret number below them represent rests.  Multi-
bar rests are notated in the form Wxn, where n is the number of bars to rest for.  Low
melody durations appear below the staff

Tablature Legend
----------------
 h   - hammer-on
 p   - pull-off
 b   - bend
 pb  - pre-bend
 r   - bend release (if no number after the r, then release immediately)
 /\  - slide into or out of (from/to "nowhere")
 s   - legato slide
 S   - shift slide
 - natural harmonic
[n]  - artificial harmonic
n(n) - tapped harmonic
 ~   - vibrato
 tr  - trill
 T   - tap
 TP  - trem. picking
 PM  - palm muting
\n/  - tremolo bar dip; n = amount to dip
 \n  - tremolo bar down
 n/  - tremolo bar up
/n\  - tremolo bar inverted dip
 =   - hold bend; also acts as connecting device for hammers/pulls
 <> - volume swell (louder/softer)
 x   - on rhythm slash represents muted slash
 o   - on rhythm slash represents single note slash

Misc Legend
-----------
 |  - bar
||  - double bar
||o - repeat start
o|| - repeat end
*|  - double bar (ending)
 :  - bar (freetime)
 $  - Segno
 &  - Coda
Tempo markers -  = BPM(8/16=s8/s16), where s8 = swing 8ths, s16 = swing 16ths

-------------------------------------------------------------------------------
	    3.One Day Women Will All Become Monsters
-------------------------------------------------------------------------------
Tabbed by:eflex21
Email: eefiala@yahoo.com

Tuning:drop d

okay, all the tabs of this song on here suck so although I dont have all of it, it is by
the most correct version. enjoy!

Intro
e|------------------------------------------------------------------------------|
B|------------------------------------------------------------------------------|
G|------------------------------------------------------------------------------|
D|-77-77-99-99~-----------------------------------------------------------------|
A|-55-55-77-77~-----------------------------------------------------------------|
D|------------------------------------------------------------------------------|
Verse
e|---------------------------------------------------------------------------|
B|---------------------------------------------------------------------------|
G|---------------------------------------------------------------------------|
D|----7-5------7-5--------7-5------7-5-------77-77-99-99---------------------|
A|--5-----55-5------7~--5-----55-5-----7~----55-55-77-77---------------------|
D|--------..-.----------------..-.-------------------------------------------|

e|---------------------------------------------------------------------------|
B|---------------------------------------------------------------------------|
G|---------------------------------------------------------------------------|
D|-7~-----------------------------7~--5~-------------------------------------|
A|-5~-----------------------------5~--3~-------------------------------------|
D|---------------------------------------------------------------------------|
sorry dont know pre chorus hammer on stuff

chorus
e|---------------------------------------------------------------------------|
B|---------------------------------------------------------------------------|
G|---------------------------------------------------------------------------|
D|--33333-55555-77777-7-7-7-77--33333-55555-77777-7-7-7-77-------------------|
A|--11111-33333-55555-5-5-5-55--11111-33333-55555-5-5-5-55-------------------|
D|--------------------.---.-----------------------.---.----------------------|

e|---------------------------------------------------------------------------|
B|---------------------------------------------------------------------------|
G|---------------------------------------------------------------------------|
D|--33333-55555-77777-7-7-7-77--33333-55555-77777-7-7-7-77-------------------|
A|--11111-33333-55555-5-5-5-55--11111-33333-55555-5-5-5-55-------------------|
D|--------------------.---.-----------------------.---.----------------------|
interlude
e|---------------------------------------------------------------------------|
B|---------------------------------------------------------------------------|
G|---------------------------------------------------------------------------|
D|-77-33-10-55-55--77-33-10-55-55--77-33-10-55-55--77-33-10~-----------------|
A|-55-11-88-33-33--55-11-88-33-33--55-11-88-33-33--55-11-8~~-----------------|
D|-..-..-..-..-..--..-..-..-..-..--..-..-..-..-..---------------------------=|

e|---------------------------------------------------------------------------|
B|---------------------------------------------------------------------------|
G|---------------------------------------------------------------------------|
D|-77-33-10-55-55--77-33-10-55-55--77-77-99-99~------------------------------|
A|-55-11-88-33-33--55-11-88-33-33--55-55-77-77~------------------------------|
D|---------------------------------------------------------------------------|
  verse
e|---------------------------------------------------------------------------|
B|---------------------------------------------------------------------------|
G|---------------------------------------------------------------------------|
D|----7-5-------7-5------7-5-------7-5-----77-77-99-99~----------------------|
A|--5-----55-5------7~--5-----55-5-----7~--55-55-77-77~----------------------|
D|--------..-.----------------..-.-------------------------------------------|

e|---------------------------------------------------------------------------|
B|---------------------------------------------------------------------------|
G|---------------------------------------------------------------------------|
D|--7-77-7-777777-3-33-3-333333-2-22-2-222222-5-55-5-555555------------------|
A|--5-55-5-555555-1-11-1-111111-0-00-0-000000-3-33-3-333333------------------|
D|----..---..-.-----..---..-.-----..---..-.-----..---..-.--------------------|

e|---------------------------------------------------------------------------|
B|---------------------------------------------------------------------------|
G|---------------------------------------------------------------------------|
D|--7-77-7-777777-3-33-3-333333-2-22-2-222222-5-55-5-555555------------------|
A|--5-55-5-555555-1-11-1-111111-0-00-0-000000-3-33-3-333333------------------|
D|----..---..-.-----..---..-.-----..---..-.-----..---..-.--------------------|
 breakdown (palm muted)
e|---------------------------------------------------------------------------|
B|---------------------------------------------------------------------------|
G|---------------------------------------------------------------------------|
D|---------------------|----------------------|------------------------------|
A|--00000-00000-00000--|-00000-00000-00000-00-|-x4---------------------------|
D|--00000-00000-00000--|-00000-00000-00000-00-|------------------------------|
 interlude
 1st guitar
e|---------------------------------------------------------------------------|
B|---------------------------------------------------------------------------|
G|---------------------------------------------------------------------------|
D|-----------------------3\2/3-5-3-2~---x6-----------------------------------|
A|--0000-5\3/5-8-7-5/7\1-----------------------------------------------------|
D|--0000---------------------------------------------------------------------|
2nd guitar
e|---------------------------------------------------------------------------|
B|---------------------------------------------------------------------------|
G|---------------------------------------------------------------------------|
D|-----------------------3333-----------1ast-4-times-of-that^----------------|
A|--0000-----------------1111------------------------------------------------|
D|--0000---------------------------------------------------------------------|
then
e|---------------------------------------------------------------------------|
B|---------------------------------------------------------------------------|
G|---------------------------------------------------------------------------|
D|--77-77-99-99~-------------------------------------------------------------|
A|--55-55-77-77~-------------------------------------------------------------|
D|---------------------------------------------------------------------------|
outro
e|---------------------------------------------------------------------------|
B|---------------------------------------------------------------------------|
G|---------------------------------------------------------------------------|
D|--77-77-77-33-33-33-22-22-22-55-55-55---x4---------------------------------|
A|--55-55-55-11-11-11-00-00-00-33-33-33--------------------------------------|
D|---------------------------------------------------------------------------|
then
e|---------------------------------------------------------------------------|
B|---------------------------------------------------------------------------|
G|---------------------------------------------------------------------------|
D|-77-77-99~-----------------------------------------------------------------|
A|-55-55-77~-----------------------------------------------------------------|
D|---------------------------------------------------------------------------|


thats it. any questions, comments, concerns email eefiala@yahoo.com. thanks!
| /  slide up
| \  slide down
| h  hammer-on
| p  pull-off
| ~  vibrato
| +  harmonic
| x  Mute note
===============================================================================

-------------------------------------------------------
             4.EXPIRED IN GOREVILLE
--------------------------------------------------------

EXPIRED IN GOREVILLE
As recorded by Chiodos
(From the 2005 Album ALL'S WELL THAT ENDS WELL)


Transcribed by Lostmotel

 Words by Craig Owens and Bradley Bell Music by Chiodos (Craig Owens, Bradley Bell,
Pat McManaman, Matt Goddard, Jason Hale, Derrick Frost)
Arranged by Chiodos (Craig Owens, Bradley Bell, Pat McManaman, Matt Goddard, Jason
Hale, Derrick Frost)Chiodos (Craig Owens, Bradley Bell, Pat McManaman, Matt Goddard,
Jason Hale, Derrick Frost)


Gtr I (D A D G B E) - 'Pat'
Gtr II (D A D G B E) - 'Jason'
Gtr III (D A D G B E) - 'Brad'
Gtr IV (D A D G B E) - 'Ocean Sounds'


 Intro
  Q=120
  D
4/4
  Gtr IV
  <
  W          +W           W          +W
|----------|------------|----------|--------|
|----------|------------|----------|--------|
|-7--------|-(7)--------|-7--------|-(7)----|
|----------|------------|----------|--------|
|-5--------|-(5)--------|-5--------|-(5)----|
|-0--------|-(0)--------|-0--------|-(0)----|


    W          +W           W          +W      3x
||-----------|------------|----------|---------||
||o----------|------------|----------|--------o||
||--7--------|-(7)--------|-7--------|-(7)-----||
||-----------|------------|----------|---------||
||o-5--------|-(5)--------|-5--------|-(5)----o||
||--0--------|-(0)--------|-0--------|-(0)-----||


  D5
                                                   3/4
  Gtr I
  W          +W           +W           +W           +H.
|----------|------------|------------|------------|--------|
|----------|------------|------------|------------|--------|
|-2--------|-(2)--------|-(2)--------|-(2)--------|-(2)----|
|-0--------|-(0)--------|-(0)--------|-(0)--------|-(0)----|
|-0--------|-(0)--------|-(0)--------|-(0)--------|-(0)----|
|-0--------|-(0)--------|-(0)--------|-(0)--------|-(0)----|
|
| Gtr II
| W          +W           +W           +W           +H.
|----------|------------|------------|------------|--------|
|----------|------------|------------|------------|--------|
|-7--------|-(7)--------|-(7)--------|-(7)--------|-(7)----|
|----------|------------|------------|------------|--------|
|-5--------|-(5)--------|-(5)--------|-(5)--------|-(5)----|
|-0--------|-(0)--------|-(0)--------|-(0)--------|-(0)----|


  D5
4/4
  W          +W           +W              +W
|----------|------------|--------------|---------|
|----------|------------|--------------|---------|
|-2--------|-(2)--------|-(2)----------|--(2)----|
|-0--------|-(0)--------|-(0)----------|--(0)----|
|-0--------|-(0)--------|-(0)----------|--(0)----|
|-0--------|-(0)--------|-(0)----------|--(0)----|
|
| W          +W           +W              +W
|----------|------------|--------------|---------|
|----------|------------|--------------|---------|
|-7--------|-(7)--------|-(7)----------|--(7)----|
|----------|------------|--------------|---------|
|-5--------|-(5)--------|-(5)----------|--(5)----|
|-0--------|-(0)--------|-(0)----------|--(0)----|
|
| Gtr III
| W           W            H      H       +W
|----------|------------|-22-----17----|-(17)----|
|----------|------------|--------------|---------|
|----------|------------|-19-----------|---------|
|----------|------------|--------------|---------|
|----------|------------|--------------|---------|
|----------|------------|--------------|---------|


  +W            +W
|------------|---------||
|------------|---------||
|-(2)--------|--(2)----||
|-(0)--------|--(0)----||
|-(0)--------|--(0)----||
|-(0)--------|--(0)----||
|
| +W            +W
|------------|---------||
|------------|---------||
|-(7)--------|--(7)----||
|------------|---------||
|-(5)--------|--(5)----||
|-(0)--------|--(0)----||
|
| Gtr III
|  W            +W
|------------|---------||
|------------|---------||
|-14---------|-(14)----||
|------------|---------||
|------------|---------||
|------------|---------||


   Verse
    Q=198
    D5                  Bb5
    Gtr I
    PM---------------------------------------
    E E  E E E E  E E   E E  E E E E  E   E
||--------------------|---------------------|
||o-------------------|---------------------|
||--------------------|---------------------|
||-------0--------0---|------8--------8-----|
||o-0-0--0-0-0-0--0-0-|-8-8--8-8-8-8--8---8-|
||--0-0--0-0-0-0--0-0-|-8-8--8-8-8-8--8---8-|
|
|   Gtr II
|   E E  E E E E  E E   E E  E E E E  E   E
||--------------------|---------------------|
||o-------------------|---------------------|
||--x-x-14-x-x-x-14-x-|-x-x-12-x-x-x-10-/12-|
||--x-x--x-x-x-x--x-x-|-x-x--x-x-x-x--x-----|
||o-x-x-12-x-x-x-12-x-|-x-x-10-x-x-x--8-/10-|
||--------------------|---------------------|
|
|   Gtr III
|   W                   W
||--5-----------------|-6-------------------|
||o-------------------|---------------------|
||--------------------|---------------------|
||--------------------|---------------------|
||o-------------------|---------------------|
||--------------------|---------------------|


  C5                        Bb5       A5
-------------------------------------------|
   E  E  E  E  E  E  E  E    E E  E E E E E E
|-------------------------|---------------------||
|-------------------------|--------------------o||
|-------------------------|---------------------||
|-------10----------10----|-------8-------7-----||
|-10-10-10-10-10-10-10-10-|--8-8--8-8-7-7-7-7--o||
|-10-10-10-10-10-10-10-10-|--8-8--8-8-7-7-7-7---||
|
|  E  E  E  E  E  E  E  E    E E  E E E E E E
|-------------------------|---------------------||
|-------------------------|--------------------o||
|--x--x-12--x--x--x-12--x-|-10-x-10-x-9-x-9-x---||
|--x--x--x--x--x--x--x--x-|--x-x--x-x-x-x-x-x---||
|--x--x-10--x--x--x-10--x-|--8-x--8-x-7-x-7-x--o||
|-------------------------|---------------------||
|
|  W                         W
|--8----------------------|--9------------------||
|-------------------------|--------------------o||
|-------------------------|---------------------||
|-------------------------|---------------------||
|-------------------------|--------------------o||
|-------------------------|---------------------||


    $
    N.C. D5
                   PM                       PM
     Q   E  E  +E  E  E  E    Q   E  E  +E  E  E  E
||-------------------------|------------------------|
||o------------------------|------------------------|
||--14---------------10-14-|-14---------------10-14-|
||---x----------------x--x-|--x----------------x--x-|
||o-12---0--0--(0)-0--8-12-|-12---0--0--(0)-0--8-12-|
||-------0--0--(0)-0-------|------0--0--(0)-0-------|
|
|                  PM                       PM
|    Q   E  E  +E  E  E  E    Q   E  E  +E  E  E  E
||-------------------------|------------------------|
||o------------------------|------------------------|
||--14---------------10-14-|-14---------------10-14-|
||---x----------------x--x-|--x----------------x--x-|
||o-12---0--0--(0)-0--8-12-|-12---0--0--(0)-0--8-12-|
||-------0--0--(0)-0-------|------0--0--(0)-0-------|
|
|    Q.     Q.        Q       Q.     Q.        Q
||---------22--------------|--------22--------------|
||o--------22--------------|--------22--------------|
||--19---------------19----|-19---------------19----|
||-------------------------|------------------------|
||o------------------------|------------------------|
||-------------------------|------------------------|


                                        To Coda
                          Bb5         A5
                 PM----------------------------|
   Q   E  E  +E  E  E E    E  E  E  E  E  E  E  E
|-----------------------|---------------------------||
|-----------------------|--------------------------o||
|-14--------------------|---------------------------||
|--x--------------------|---------------------------||
|-12---0--0--(0)-0--0-0-|--8--8--8--8--7--7--7--7--o||
|------0--0--(0)-0--0-0-|--8--8--8--8--7--7--7--7---||
|
|                PM----------------------------|
|  Q   E  E  +E  E  E E    E  E  E  E  E  E  E  E
|-----------------------|---------------------------||
|-----------------------|--------------------------o||
|-14--------------------|---------------------------||
|--x--------------------|---------------------------||
|-12---0--0--(0)-0--0-0-|--8--8--8--8--7--7--7--7--o||
|------0--0--(0)-0--0-0-|--8--8--8--8--7--7--7--7---||
|
|  Q.     Q.        Q      E  E  E  E  E  E  E  E
|--------22-------------|-18-17-15------------------||
|--------22-------------|----------18-17-15--------o||
|-19---------------19---|-------------------17-15---||
|-----------------------|---------------------------||
|-----------------------|--------------------------o||
|-----------------------|---------------------------||


Chorus
  Q=99
  D5             C5       Bb5   D5             C5       Bb5
   PM----------------------------------------------------------
   E  E  S  E     E  E  S  Q     E  E  S  E     E  E  S  Q
|-----------------------------|-------------------------------|
|-----------------------------|-------------------------------|
|--7--7--7--7-----5--5--5--3--|--7--7--7--7-----5--5--5--3----|
|--7--7--7--7-----5--5--5--3--|--7--7--7--7-----5--5--5--3----|
|--5--5--5--5-----3--3--3--1--|--5--5--5--5-----3--3--3--1----|
|-----------------------------|-------------------------------|
|
|                          ~~
|  e  e  S  E     e  e  S  Q     e  e  S  E     e  e  S  E  E
|-----------------------------|----------------------------10-|
|-------10-11----------11-10--|-------10-11----------11-10----|
|--7--9-----------7--9--------|--7--9-----------9--9----------|
|-----------------------------|-------------------------------|
|-----------------------------|-------------------------------|
|-----------------------------|-------------------------------|
|
|                          ~~                            ~~
|  e  e  e     S  e  e  S  Q     e  e  e     S  e  e  S  Q
|-10-12-13----12-15-15-15-13--|-10-12-13----12-17-17-18-17----|
|-----------------------------|-------------------------------|
|-----------------------------|-------------------------------|
|-----------------------------|-------------------------------|
|-----------------------------|-------------------------------|
|-----------------------------|-------------------------------|


  D5             C5       Bb5   D5             C5       Bb5
-------------------------------------------------------|
   E  E  S  E     E  E  S  Q     E  E  S  E     E  E  S  Q
|-----------------------------|--------------------------------||
|-----------------------------|--------------------------------||
|--7--7--7--7-----5--5--5--3--|--7--7--7--7-----5--5--5--3-----||
|--7--7--7--7-----5--5--5--3--|--7--7--7--7-----5--5--5--3-----||
|--5--5--5--5-----3--3--3--1--|--5--5--5--5-----3--3--3--1-----||
|-----------------------------|--------------------------------||
|
|                          ~~
|  e  e  S  E     e  e  S  Q     e  e  S  E     e  e  S  E  E
|-----------------------------|----------------------------10--||
|-------10-11----------11-10--|-------10-11----------11-10-----||
|--7--9-----------7--9--------|--7--9-----------9--9-----------||
|-----------------------------|--------------------------------||
|-----------------------------|--------------------------------||
|-----------------------------|--------------------------------||
|
|                          ~~                            ~~
|  e  e  e     S  e  e  S  Q     e  e  e     S  e  e  S  Q
|-10-12-13----12-15-15-15-13--|-10-12-13----12-17-17-18-17-----||
|-----------------------------|--------------------------------||
|-----------------------------|--------------------------------||
|-----------------------------|--------------------------------||
|-----------------------------|--------------------------------||
|-----------------------------|--------------------------------||


Interlude
  Q=198
  D5
    W            +W
|-------------|-------------|
|-------------|-------------|
|---7---------|--(7)--------|
|---7---------|--(7)--------|
|---5---------|--(5)--------|
|-------------|-------------|
|
|   W            +W
|-------------|-------------|
|-------------|-------------|
|-------------|-------------|
|---0---------|--(0)--------|
|---0---------|--(0)--------|
|---0---------|--(0)--------|
|
|   >
|  +W            +W
|-(17)--------|-(17)--------|
|-------------|-------------|
|-------------|-------------|
|-------------|-------------|
|-------------|-------------|
|-------------|-------------|


  Bb5                                C5
    E  E E +E  E E E  E    +E   E  E   Q    E  E  E
|-----------------------|---------------------------|
|-----------------------|---------------------------|
|-----------------------|---------------------------|
|---7--7-7-(7)-7-7-7-10-|-(10)-10-10--10---10-10-10-|
|---7--7-7-(7)-7-7-7-10-|-(10)-10-10--10---10-10-10-|
|---7--7-7-(7)-7-7-7-10-|-(10)-10-10--10---10-10-10-|
|
|   E  E E +E  E E E  E    +E   E  E   Q    E  E  E
|-----------------------|---------------------------|
|-----------------------|---------------------------|
|--------------------10-|-(10)-10-10---9----9--9--9-|
|---7--7-7-(7)-7-7-7--x-|--(x)--x--x---x----x--x--x-|
|---7--7-7-(7)-7-7-7--8-|--(8)--8--8---7----7--7--7-|
|---7--7-7-(7)-7-7-7----|---------------------------|
|
|  +W                       H            Q     Q
|-(17)------------------|---------------------------|
|-----------------------|---6------------5-----5----|
|-----------------------|---------------------------|
|-----------------------|---------------------------|
|-----------------------|---------------------------|
|-----------------------|---------------------------|


Verse
  D5                                    Bb5          F5            C5
  Gtrs I, II
  PM----------|           PM  PM  PM    PM-------------|     PM------------|
  E E E E E E E E    E  E E E E E E E   E E E  E E E E E   E E E E  E E  E E
|-----------------|-------------------|------------------|-------------------|
|-----------------|-------------------|------------------|-------------------|
|-----------------|-------------------|------------------|-------------------|
|-----------------|-------------------|------------------|-------------------|
|-0-0---0-0---0-0-|-----0-0---0---0---|-8-8----8-8---3-3-|---3-3---10---10---|
|-0-0---0-0---0-0-|-----0-0---0---0---|-8-8----8-8---3-3-|---3-3---10---10---|
|
| Gtr III
| W                 +Q    q   Q   q     Q   H.             H        Q    Q
|-----------------|-------------------|------------------|-------------------|
|-----------------|-------5-------6---|-----8------------|----------5----5---|
|-7---------------|-(7)---------------|------------------|-6-----------------|
|-----------------|-------------------|------------------|-------------------|
|-----------------|-------------------|------------------|-------------------|
|-----------------|-------------------|------------------|-------------------|


  D5                                    Bb5          F5            C5
  PM----------|         PM-----------------------------|     PM------------|
  E E E E E E E E    E  E E E E E E E   E E E  E E E E E   E E E E  E E  E E
|-----------------|-------------------|------------------|-------------------|
|-----------------|-------------------|------------------|-------------------|
|-----------------|-------------------|------------------|-------------------|
|-----------------|-------------------|------------------|-------------------|
|-0-0---0-0---0-0-|-----0-0---0---0---|-8-8----8-8---3-3-|---3-3---10---10---|
|-0-0---0-0---0-0-|-----0-0---0---0---|-8-8----8-8---3-3-|---3-3---10---10---|
|
| W                 +Q    q   Q   q     Q   H.             H        Q    Q
|-----------------|-------------------|------------------|-------------------|
|-----------------|-------5-------6---|-----8------------|----------5----5---|
|-7---------------|-(7)---------------|------------------|-6-----------------|
|-----------------|-------------------|------------------|-------------------|
|-----------------|-------------------|------------------|-------------------|
|-----------------|-------------------|------------------|-------------------|


  D5
  PM----------|         PM---------------
  E E E E E E E E    E  E E E  E  E E E
|-----------------|---------------------|
|-----------------|---------------------|
|-----------------|---------------------|
|-----------------|---------------------|
|-0-0---0-0---0-0-|-----0-0----0----0---|
|-0-0---0-0---0-0-|-----0-0----0----0---|
|
| W                 +Q    Q   +Q    Q
|-----------------|---------------------|
|-----------------|-------5---(5)---6---|
|-7---------------|-(7)-----------------|
|-----------------|---------------------|
|-----------------|---------------------|
|-----------------|---------------------|


  Bb5            F5            C5
------------------|     PM------------|
   E  E E  E E E E E   E E E E  E E  E E
|--------------------|-------------------|
|--------------------|-------------------|
|--------------------|-------------------|
|--------------------|-------------------|
|--8--8----8-8---3-3-|---3-3---10---10---|
|--8--8----8-8---3-3-|---3-3---10---10---|
|
| +Q    H.             H        Q    Q
|--------------------|-------------------|
|-(6)---8------------|----------5----5---|
|--------------------|-6-----------------|
|--------------------|-------------------|
|--------------------|-------------------|
|--------------------|-------------------|


    D5                  Bb5
    Gtr I
    PM-----------------------------------------
    E E  E E E E  E E    E  E  E E E E  E   E
||--------------------|-----------------------|
||o-------------------|-----------------------|
||--------------------|-----------------------|
||-------0--------0---|--------8--------8-----|
||o-0-0--0-0-0-0--0-0-|--8--8--8-8-8-8--8---8-|
||--0-0--0-0-0-0--0-0-|--8--8--8-8-8-8--8---8-|
|
|   Gtr II
|   E E  E E E E  E E    E  E  E E E E  E   E
||--------------------|-----------------------|
||o-------------------|-----------------------|
||--x-x-14-x-x-x-14-x-|--x--x-12-x-x-x-10-/12-|
||--x-x--x-x-x-x--x-x-|--x--x--x-x-x-x--x-----|
||o-x-x-12-x-x-x-12-x-|--x--x-10-x-x-x--8-/10-|
||--------------------|-----------------------|
|
|   Gtr III
|   W                   +W
||--------------------|-----------------------|
||o-------------------|-----------------------|
||--7-----------------|-(7)-------------------|
||--------------------|-----------------------|
||o-5-----------------|-(5)-------------------|
||--------------------|-----------------------|


                                 D.S. al Coda
  C5                         Bb5       A5
--------------------------------------------|
   E   E  E  E  E  E  E  E    E E  E E E E E E
|--------------------------|---------------------||
|--------------------------|--------------------o||
|--------------------------|---------------------||
|--------10----------10----|-------8-------7-----||
|-10--10-10-10-10-10-10-10-|--8-8--8-8-7-7-7-7--o||
|-10--10-10-10-10-10-10-10-|--8-8--8-8-7-7-7-7---||
|
|  E   E  E  E  E  E  E  E    E E  E E E E E E
|--------------------------|---------------------||
|--------------------------|--------------------o||
|--x---x-12--x--x--x-12--x-|-10-x-10-x-9-x-9-x---||
|--x---x--x--x--x--x--x--x-|--x-x--x-x-x-x-x-x---||
|--x---x-10--x--x--x-10--x-|--8-x--8-x-7-x-7-x--o||
|--------------------------|---------------------||
|
| +W                          q    q   q   q
|--------------------------|--3----3---3---3-----||
|--------------------------|--7----7---7---7----o||
|-(7)----------------------|---------------------||
|--------------------------|---------------------||
|-(5)----------------------|--------------------o||
|--------------------------|---------------------||


Bridge
                     Q=99
  &
  Bb5                  D5
               2/4    4/4
  Gtr I
  E E H.        H      W          +W
|-------------|------|----------|-------------------|
|-------------|------|----------|-------------------|
|-------------|------|----------|-------------------|
|-------------|------|----------|-------------------|
|-8-8---------|------|-4--------|-(4)---------------|
|-8-8---------|------|-0--------|-(0)---------------|
|
| Gtr II
| E E H.        H      W           E  E E E E E E E
|-------------|------|----------|-------------------|
|-------------|------|----------|-----0---0---0---0-|
|-------------|------|-2--------|--3----3---3---3---|
|-------------|------|-0--------|-------------------|
|-8-8---------|------|-0--------|-------------------|
|-8-8---------|------|-0--------|-------------------|


  +W                  +W
|-------------------|-------------------|
|-------------------|-------------------|
|-------------------|-------------------|
|-------------------|-------------------|
|-(4)---------------|-(4)---------------|
|-(0)---------------|-(0)---------------|
|
|  E  E E E E E E E    E  E E E E E E E
|-------------------|-------------------|
|-----0---0---0---0-|-----0---0---0---0-|
|--2----2---2---2---|--3----3---3---3---|
|-------------------|-------------------|
|-------------------|-------------------|
|-------------------|-------------------|


  +W                  +W
|-------------------|-------------------||
|-------------------|-------------------||
|-------------------|-------------------||
|-------------------|-------------------||
|-(4)---------------|-(4)---------------||
|-(0)---------------|-(0)---------------||
|
|  E  E E E E E E E    E  E E E E E E E
|-------------------|-------------------||
|-----0---0---0---0-|-----0---0---0---0-||
|--2----2---3---3---|--2----2---3---3---||
|-------------------|-------------------||
|-------------------|-------------------||
|-------------------|-------------------||


Breakdown
  D5             D5C     D5      C    D5C     D5             C
                 PM      PM----|      PM      PM----------|
  H.      Q      E  E  E E E E E  E   E  E  E E   E     E  E  E  3x
|------------||----11-11----------7-|---11-11-----------------7--||
|------------||o---10-10---------11-|---10-10----------------11-o||
|-2----------||---------------------|----------------------------||
|-0----------||---------------------|----------------------------||
|-0----------||o-0-------0-0-0-0----|-0-------0---0-----0--0----o||
|-0----------||--0-------0-0-0-0----|-0-------0---0-----0--0-----||
|
|                PM      PM----|      PM      PM
| H.      Q      E  E  E E E E E  E   E  E  E E   S  S  E  E  E  3x
|------------||-------------------6-|----------------------------||
|------------||o----7--7---------10-|----7--7----/7s=8--8s10-10-o||
|-2----------||----10-10------------|---10-10---/10s11-11s13-13--||
|-0----------||---------------------|----------------------------||
|-0----------||o-0-------0-0-0-0----|-0-------0-----------------o||
|-0----------||--0-------0-0-0-0----|-0-------0------------------||


  D5C     D5      C    D5C     D5
  PM      PM----|      PM      PM----------|
  E  E  E E E E E  E   E  E  E E   E     E  q
|---11-11----------7-|---11-11-----------------|
|---10-10---------11-|---10-10-----------------|
|--------------------|-------------------------|
|--------------------|-------------------------|
|-0-------0-0-0-0----|-0-------0---0-----0--0--|
|-0-------0-0-0-0----|-0-------0---0-----0--0--|
|
| PM      PM----|      PM      PM
| E  E  E E E E E  E   E  E  E E   S  S  E  q
|------------------6-|-------------------------|
|----7--7---------10-|----7--7----/7s=8--8s10--|
|---10-10------------|---10-10---/10s11-11s13--|
|--------------------|-------------------------|
|-0-------0-0-0-0----|-0-------0---------------|
|-0-------0-0-0-0----|-0-------0---------------|


Outro
                                                        Q
  D5             C5       Bb5   D5             C5
   PM------------------------------------------|
   E  E  S  E     E  E  S  Q     E  E  S  E     E Q..
|-----------------------------|-------------------------|
|-----------------------------|-------------------------|
|--7--7--7--7-----5--5--5--3--|--7--7--7--7-----5-------|
|--7--7--7--7-----5--5--5--3--|--7--7--7--7-----5-------|
|--5--5--5--5-----3--3--3--1--|--5--5--5--5-----3-------|
|-----------------------------|-------------------------|
|
|                          ~~
|  e  e  S  E     e  e  S  Q     e  e  S  E     e Q..
|-----------------------------|-------------------------|
|--------9-10----------11-10--|--------9-10-------------|
|--7--9-----------7--9--------|--7--9-----------9-------|
|-----------------------------|-------------------------|
|-----------------------------|-------------------------|
|-----------------------------|-------------------------|
|
| Gtr III
|                          ~~
|  e  e  e     S  e  e  S  Q     e  e  e     S  e Q..
|-10-12-13----12-15-15-15-13--|-10-12-13----12-17-------|
|-----------------------------|-------------------------|
|-----------------------------|-------------------------|
|-----------------------------|-------------------------|
|-----------------------------|-------------------------|
|-----------------------------|-------------------------|


=198
  D5          C5            BbD5
   q   q   q   q     q   q   q   q
|-----------------|------------------|
|-----------------|------------------|
|-----------------|------------------|
|-12--12--12--10--|-10---8--12--12---|
|-12--12--12--10--|-10---8--12--12---|
|-12--12--12--10--|-10---8--12--12---|
|
|  q   q   q   q     q   q   q   q
|-----------------|------------------|
|-----------------|------------------|
|-14--14--14--12--|-12--10--14--14---|
|--x---x---x---x--|--x---x---x---x---|
|-12--12--12--10--|-10---8--12--12---|
|-----------------|------------------|
|
|  W                 W
|-----------------|------------------|
|-----------------|------------------|
|-----------------|------------------|
|-----------------|------------------|
|-----------------|------------------|
|-----------------|------------------|


                                Q=99
      C5      Bb5   D5
   q   q   q   q     q  H.        Wx3
|-----------------|-------------|------------|
|-----------------|-------------|------------|
|-----------------|-------------|------------|
|-12--10--10---8--|-12----------|------------|
|-12--10--10---8--|-12----------|------------|
|-12--10--10---8--|-12----------|------------|
|
|  q   q   q   q     q  H.        Wx3
|-----------------|-------------|------------|
|-----------------|-------------|------------|
|-14--12--12--10--|-14----------|------------|
|--x---x---x---x--|--x----------|------------|
|-12--10--10---8--|-12----------|------------|
|-----------------|-------------|------------|
|
|  W                 W            Wx3
|-----------------|-------------|------------|
|-----------------|-------------|------------|
|-----------------|-------------|------------|
|-----------------|-------------|------------|
|-----------------|-------------|------------|
|-----------------|-------------|------------|


  D5             C5       Bb5
   PM---------------------|
   E  E  S  E     E  E  S  E  S  S
|-----------------------------------*|
|-----------------------------------*|
|-----------------------------------*|
|-12-12-12-12----10-10-10--8--x--x--*|
|-12-12-12-12----10-10-10--8--x--x--*|
|-12-12-12-12----10-10-10--8--x--x--*|
|
|  e  e  S  E     e  e  S  E  E
|----------------------------10\----*|
|-------10-11----------11-10--------*|
|--7--9-----------9--9--------------*|
|-----------------------------------*|
|-----------------------------------*|
|-----------------------------------*|
|
|                          ~~
|  e  e  e     S  e  e  S  Q
|-10-12-13----12-15-15-15-13--------*|
|-----------------------------------*|
|-----------------------------------*|
|-----------------------------------*|
|-----------------------------------*|
|-----------------------------------*|


--------------------------------------------------------------------------------


Duration Legend
---------------
W - whole; H - half; Q - quarter; E - 8th; S - 16th; T - 32nd; X - 64th; a - acciaccatura
+ - note tied to previous; . - note dotted; .. - note double dotted
Uncapitalized letters represent notes that are staccato (1/2 duration)
Irregular groupings are notated above the duration line
Duration letters will always appear directly above the note/fret number it represents the
duration for.  Duration letters with no fret number below them represent rests.  Multi-
bar rests are notated in the form Wxn, where n is the number of bars to rest for.  Low
melody durations appear below the staff

Tablature Legend
----------------
h   - hammer-on
p   - pull-off
b   - bend
pb  - pre-bend
r   - bend release (if no number after the r, then release immediately)
/\  - slide into or out of (from/to "nowhere")
s   - legato slide
S   - shift slide
 - natural harmonic
[n]  - artificial harmonic
n(n) - tapped harmonic
~   - vibrato
tr  - trill
T   - tap
TP  - trem. picking
PM  - palm muting
\n/  - tremolo bar dip; n = amount to dip
\n  - tremolo bar down
n/  - tremolo bar up
/n\  - tremolo bar inverted dip
=   - hold bend; also acts as connecting device for hammers/pulls
<> - volume swell (louder/softer)
x   - on rhythm slash represents muted slash
o   - on rhythm slash represents single note slash

Misc Legend
-----------
|  - bar
||  - double bar
||o - repeat start
o|| - repeat end
*|  - double bar (ending)
:  - bar (freetime)
$  - Segno
&  - Coda
Tempo markers -  = BPM(8/16=s8/s16), where s8 = swing 8ths, s16 = swing 16ths

-----------------------------------------------------------------
         5. Baby, You Wouldn't Last A Minute On The Creek
-----------------------------------------------------------------

There's a couple of incorrect versions of this song, so i decided to sit down and tab it
best i could...i think it's 100% correct, but i could be wrong...

Song is in Drop D

Part 1 - No distortion

e--------------------------------------------------------------------------|
B------10---8---6---5---6---8---6--------6---6----------5---5--------5-----|
G----7----7---7---7---7---7---7---7----7---7---7-----7----7-------7-----7--|
D--0--------------------------------8-------------7------------7-----------|
A--------------------------------------------------------------------------|
D--------------------------------------------------------------------------|

e----------------------------------------------------------------8---------|
B------10---8---6---5---6---8---6--------6---6----------5---5--------------|
G----7----7---7---7---7---7---7---7----7---7---7-----7----7---7------------|
D--0--------------------------------8-------------7------------------------|
A--------------------------------------------------------------------------|
D--------------------------------------------------------------------------|

Repeat Once


Next Part w/ Heavy Distortion

e-------------------------------------------------------------------------|
B-------------------------------------------------------------------------|
G-------------------------------------------------------------------------|
D---7--7--7--7----9--9--9--9----10-10-10-10----10-10-10-10----9--9--9--9--|
A---5--5--5--5----7--7--7--7----8--8--8--8-----8--8--8--8-----7--7--7--7--|
D-------------------------------------------------------------------------|

e-------------------------------------------------------------------------|
B-------------------------------------------------------------------------|
G-------------------------------------------10--10--10--10----------------|
D---7--7--7--7---9--9--9--9---10-10-10-10---8---8---8---8--12--12--12--12-|
A---5--5--5--5---7--7--7--7---8--8--8--8-------------------10--10--10--10-|
D-------------------------------------------------------------------------|

Repeat Once


Tempo is slowed for next part
                                                                 ~
e------------------------------------------------------------------|
B------------------------------------------------------------------|
G------------------------------------------------------------------|
D---7--7--7--7--0--0--0--0--7--7--7--7--0--0--0--0-----------------|
A---5--5--5--5--0--0--0--0--5--5--5--5--0--0--0--0----1 slide to 8-|
D---------------0--0--0--0--------------0--0--0--0-----------------|
               pm.........            pm...........

                                                                 ~
e------------------------------------------------------------------|
B------------------------------------------------------------------|
G------------------------------------------------------------------|
D---7--7--7--7--0--0--0--0--7--7--7--7--0--0--0--0-----------------|
A---5--5--5--5--0--0--0--0--5--5--5--5--0--0--0--0----1 slide to 3-|
D---------------0--0--0--0--------------0--0--0--0-----------------|
               pm.........            pm...........

Repeat Once


This next part is reaaaaally hard to figure out what they're playing
but this is what i came up with (Note: this is not correct, but is close)

e-------------------------------------------------------------------|
B-------------------------------------------------------------------|
G-------------------------------------------------------------------|
D--7--7--7--5--5--5----3--3--3---3--3--3---0--0--0--0---8--8--8--8--|
A--5--5--5--3--3--3----1--1--1---1--1--1---0--0--0--0---8--8--8--8--|
D------------------------------------------0--0--0--0---8--8--8--8--|

e----------------------------|
B----------------------------|
G----------------------------|
D---2--2---3--3--3---5--5--5-|
A---0--0---1--1--1---3--3--3-|
D----------------------------|

I'm sorry it's so wrong guys!!


Repeat Once


e----------------------------------------------------------------------|
B----------------------------------------------------------------------|
G----------------------------------------------------------------------|
D---7--7---7--7--7---7--7---7--7--7---5--5---5--5--5---5--5---5--5--5--|
A---5--5---5--5--5---5--5---5--5--5---3--3---3--3--3---3--3---3--3--3--|
D----------------------------------------------------------------------|

e----------------------------------------------------------------------|
B----------------------------------------------------------------------|
G----------------------------------------------------------------------|
D---2--2---2--2--2---2--2---2--2--2---3--3---3--3--3---3--3---3--3--3--|
A---0--0---0--0--0---0--0---0--0--0---1--1---1--1--1---1--1---1--1--1--|
D----------------------------------------------------------------------|

Repeat Once


e-------------------------------------------------------------------|
B-------------------------------------------------------------------|
G-------------------------------------------------------------------|
D--7--7--7--5--5--5----3--3--3---3--3--3---0--0--0--0---8--8--8--8--|
A--5--5--5--3--3--3----1--1--1---1--1--1---0--0--0--0---8--8--8--8--|
D------------------------------------------0--0--0--0---8--8--8--8--|

e----------------------------|
B----------------------------|
G----------------------------|
D---2--2---3--3--3---5--5--5-|
A---0--0---1--1--1---3--3--3-|
D----------------------------|

Repeat Once


e------------------------------------------------------------------|
B------------------------------------------------------------------|
G------------------------------------------------------------------|
D---7--7--7--7--0--0--0--0--7--7--7--7--0--0--0--0-----------------|
A---5--5--5--5--0--0--0--0--5--5--5--5--0--0--0--0----1 slide to 8-|
D---------------0--0--0--0--------------0--0--0--0-----------------|
               pm.........            pm...........

                                                                 ~
e------------------------------------------------------------------|
B------------------------------------------------------------------|
G------------------------------------------------------------------|
D---7--7--7--7--0--0--0--0--7--7--7--7--0--0--0--0-----------------|
A---5--5--5--5--0--0--0--0--5--5--5--5--0--0--0--0----1 slide to 3-|
D---------------0--0--0--0--------------0--0--0--0-----------------|
               pm.........            pm...........


Repeat Once

This is just like the soft part in the beginning w/ no distortion

e--------------------------------------------------------------------------|
B------10---8---6---5---6---8---6--------6---6----------5---5--------5-----|
G----7----7---7---7---7---7---7---7----7---7---7-----7----7-------7-----7--|
D--0--------------------------------8-------------7------------7-----------|
A--------------------------------------------------------------------------|
D--------------------------------------------------------------------------|

e----------------------------------------------------------------8---------|
B------10---8---6---5---6---8---6--------6---6----------5---5--------------|
G----7----7---7---7---7---7---7---7----7---7---7-----7----7---7------------|
D--0--------------------------------8-------------7------------------------|
A--------------------------------------------------------------------------|
D--------------------------------------------------------------------------|


Repeat Once


This next part is like a little breakdown, it sounds cool

e-------------------------------------------------------|
B-------------------------------------------------------|
G-------------------------------------------------------|
D---0--0--0--0------------------------------------------|
A---0--0--0--0---8--8--8--8---7--7--7---10--10--10--10--|
D---0--0--0--0------------------------------------------|
  pm..........

e-------------------------------------------------------|
B-------------------------------------------------------|
G-------------------------------------------------------|
D---0--0--0--0------------------------------------------|
A---0--0--0--0---12--12--12--12---10--8--10--8--7-------|
D---0--0--0--0------------------------------------------|
  pm..........


Repeat 3 Times


This is another breakdown-type riff, and it's fast and hard

e------------------------------------------|
B------------------------------------------|
G------------------------------------------|
D--0--0--0--0------------------------------|
A--0--0--0--0----8--5--7--10--8--7--3--5---|
D--0--0--0--0------------------------------|
 pm..........

e------------------------------------------|
B------------------------------------------|
G------------------------------------------|
D--0--0--0--0------------------------------|
A--0--0--0--0----8--5--7--8--12--10--8--7--|
D--0--0--0--0------------------------------|
 pm..........

Repeat Once

e------------------------------------------|
B------------------------------------------|
G------------------------------------------|
D--0--0--0--0------------------------------|
A--0--0--0--0----13--12--10--8--7--8--7--4-|
D--0--0--0--0------------------------------|
 pm..........                   ~  ~  ~  ~


e----------------------------------------------------------------------|
B----------------------------------------------------------------------|
G----------------------------------------------------------------------|
D---7--7---7--7--7---7--7---7--7--7---5--5---5--5--5---5--5---5--5--5--|
A---5--5---5--5--5---5--5---5--5--5---3--3---3--3--3---3--3---3--3--3--|
D----------------------------------------------------------------------|

e----------------------------------------------------------------------|
B----------------------------------------------------------------------|
G----------------------------------------------------------------------|
D---2--2---2--2--2---2--2---2--2--2---3--3---3--3--3---3--3---3--3--3--|
A---0--0---0--0--0---0--0---0--0--0---1--1---1--1--1---1--1---1--1--1--|
D----------------------------------------------------------------------|

Repeat Once

e------------------------------------------------------------------|
B------------------------------------------------------------------|
G------------------------------------------------------------------|
D---7--7--7--7--0--0--0--0--7--7--7--7--0--0--0--0-----------------|
A---5--5--5--5--0--0--0--0--5--5--5--5--0--0--0--0----1 slide to 8-|
D---------------0--0--0--0--------------0--0--0--0-----------------|
               pm.........            pm...........

                                                                 ~
e------------------------------------------------------------------|
B------------------------------------------------------------------|
G------------------------------------------------------------------|
D---7--7--7--7--0--0--0--0--7--7--7--7--0--0--0--0-----------------|
A---5--5--5--5--0--0--0--0--5--5--5--5--0--0--0--0----1 slide to 3-|
D---------------0--0--0--0--------------0--0--0--0-----------------|
               pm.........            pm...........

Repeat Once


Outro is simply

e--------------|
B--------------|
G--------------|
D---0--0--0--0-|
A---0--0--0--0-|
D---0--0--0--0-|
  pm..........


__________________________________________________

 The Words "Best Friend" Become Redefined- Chiodos
__________________________________________________
Alright guys this is my first tab ever, so go easy on me eh? I was told that i need to
playing by ear, by my Uncle/teacher so here we go.
First off i would like to say that Chiodos effing Rox. Jason Hale and Pat Mcmanaman are
shit. so yeah enjoy, any Feed Back you wanna give just message me at
to tell me what you think
I put as many measures as ur supposed to do, so how ever many i have on here is how many
supposed to do.

P-Pull-off
H-Hammer-on
*-Harmonic
T-Tremolo
~-Vibrato(let ring)
x-muted string
.-Palm muted


Intro-0:00

Jason Hale-Gtr 1
|---------------------------------------------------------------------------|
|---------------------------------------------------------------------------|
|---------------------------------------------------------------------------|
|---------------------------------------------------------------------------|
|5p0-5p0-5p0-12p0-10p0-10p0-8p0-8p0-7p0-7p0-7p0-8p0-7p0-7p0-4h7p4-4h7-------|
|---------------------------------------------------------------------------|

|---------------------------------------------------------------------------|
|---------------------------------------------------------------------------|
|---------------------------------------------------------------------------|
|---------------------------------------------------------------------------|
|5p0-5p0-12p0-10p0-10p0-8p0-8p0-10p0-10p0-12p0-13p0-13p0-12p0-12p0----------|
|---------------------------------------------------------------------------|

|---------------------------------------------------------------------------|
|---------------------------------------------------------------------------|
|---------------------------------------------------------------------------|
|---------------------------------------------------------------------------|
|5p0-5p0-5p0-12p0-10p0-10p0-8p0-8p0-7p0-7p0-7p0-8p0-7p0-7p0-4h7p4-4h7-------|
|---------------------------------------------------------------------------|

|---------------------------------------------------------------------------|
|---------------------------------------------------------------------------|
|---------------------------------------------------------------------------|
|---------------------------------------------------------------------------|
|5p0-5p0-12p0-10p0-10p0-8p0-8p0-10p0-10p0-12p0-13p0-13p0-12p0-12p0----------|
|---------------------------------------------------------------------------|


Intro w/ 2nd Guitar-0:17

Jason Hale-Gtr 1
|---------------------------------------------------------------------------|
|---------------------------------------------------------------------------|
|---------------------------------------------------------------------------|
|---------------------------------------------------------------------------|
|5p0-5p0-5p0-12p0-10p0-10p0-8p0-8p0-7p0-7p0-7p0-8p0-7p0-7p0-4h7p4-4h7-------|
|---------------------------------------------------------------------------|

Pat McManaman-Gtr2
|------------------------------------------|
|------------------------------------------|
|-----7-7-7-7-7-7-7-7-10-10-10-10-9-9-9-9--|NOTE: when Gtr. 1 does the hammery
|-----x-x-x-x-x-x-x-x--x--x--x--x-x-x-x-x--|Thing, gtr. 2 Palm mutes all sound
|15/1-5-5-5-5-5-5-5-5--8--8--8--8-7-7-7-7--|
|15/1--------------------------------------|

J.H-Guitar 1
|---------------------------------------------------------------------------|
|---------------------------------------------------------------------------|
|---------------------------------------------------------------------------|
|---------------------------------------------------------------------------|
|5p0-5p0-12p0-10p0-10p0-8p0-8p0-10p0-10p0-12p0-13p0-13p0-12p0-12p0----------|
|---------------------------------------------------------------------------|

P.M-Guitar 2
|---------------------------------------------------------------------------|
|---------------------------------------------------------------------------|
|7-7-7-7-7-7-7-7-10-10-10-10-9-9-9-9----------------------------------------|
|x-x-x-x-x-x-x-x--x--x--x--x-x-x-x-x----------------------------------------|
|4-4-4-4-4-4-4-4--8--8--8--8-7-7-7-7----------------------------------------|
|---------------------------------------------------------------------------|

Jason Hale-Gtr 1
|---------------------------------------------------------------------------|
|---------------------------------------------------------------------------|
|---------------------------------------------------------------------------|
|---------------------------------------------------------------------------|
|5p0-5p0-5p0-12p0-10p0-10p0-8p0-8p0-7p0-7p0-7p0-8p0-7p0-7p0-4h7p4-4h7-------|
|---------------------------------------------------------------------------|

Pat McManaman-Gtr2
|------------------------------------------|
|------------------------------------------|
|-----7-7-7-7-7-7-7-7-10-10-10-10-9-9-9-9--|NOTE: when Gtr. 1 does the hammery
|-----x-x-x-x-x-x-x-x--x--x--x--x-x-x-x-x--|Thing, gtr. 2 Palm mutes all sound
|15/1-5-5-5-5-5-5-5-5--8--8--8--8-7-7-7-7--|
|15/1--------------------------------------|

J.H-Guitar 1
|---------------------------------------------------------------------------|
|---------------------------------------------------------------------------|
|---------------------------------------------------------------------------|
|---------------------------------------------------------------------------|
|5p0-5p0-12p0-10p0-10p0-8p0-8p0-10p0-10p0-12p0-13p0-13p0-12p0-12p0----------|
|---------------------------------------------------------------------------|

P.M-Guitar 2
|---------------------------------------------------------------------------|
|---------------------------------------------------------------------------|
|7-7-7-7-7-7-7-7-10-10-10-10-9-9-9-9----------------------------------------|
|x-x-x-x-x-x-x-x--x--x--x--x-x-x-x-x----------------------------------------|
|4-4-4-4-4-4-4-4--8--8--8--8-7-7-7-7----------------------------------------|
|---------------------------------------------------------------------------|

Then the Piano Interlude kicks in 0:35-1:46 I don't know how to do it but there's one
on here that has it transcibed and i didnt wanna steal his work so yeah........

Solo-1:47

J.H Gtr. 1
|---------------------------------------------------------------------------|
|-15~13-15~-17-13~-13~10~-8-10~-12~-14~-------------------------------------|
|---------------------------------------------------------------------------|
|---------------------------------------------------------------------------|
|---------------------------------------------------------------------------|
|---------------------------------------------------------------------------|

P.M Gtr 2

|---------------------------------------------------------------------------|
|---------------------------------------------------------------------------|
|---------------------------------------------------------------------------|
|--7~----7~-----5~--5~-3~----3~--5~--7~-------------------------------------|
|--5~----5~-----5~--5~-3~----3~--5~--5~-------------------------------------|
|---------------------------------------------------------------------------|

Fast Strumming-2:04

J.H Gtr 1
|---------------------------------------------------------------------------|
|-15-17-15-19-21------------------------------------------------------------|
|---------------------------------------------------------------------------|
|---------------------------------------------------------------------------|
|---------------------------------------------------------------------------|
|---------------------------------------------------------------------------|

P.M Gtr 2
|---------------------------------------------------------------------------|
|---------------------------------------------------------------------------|
|-----------9-9-9-9-9--9-9-9-9-9---7-7-7-7-7---7-7-7-7-7--------------------|
|--7~-9~-7~-x-x-x-x-x--x-x-x-x-x---x-x-x-x-x---x-x-x-x-x--------------------|
|--5~-7~-5~-7-7-7-7-7--7-7-7-7-7---5-5-5-5-5---5-5-5-5-5--------------------|
|---------------------------------------------------------------------------|

Breakdown Part-2:22
Both Guitars
|------------|
|------------|
|------------| x4
|------------|
|-00--00-00--|
|-00--00-00--|
  ..  .. ..

Techno Part-2:32


Breakdown Part-2:36

|------------|
|--10---10~--|
|---8----8~--| x4
|------------|
|00---00-----|
|00---00-----|
 ..   ..

Breakdown Part 2-2:46
|--------------------|
|---11--11~---11-----|
|----8---8~----8-----|
|--------------------|
|00---00---00---00---|
|00---00---00---00---|
 ..   ..   ..   ..

Breakdown Part 3-2:51
|-------------|
|-------------|
|-------------|
|-------------|
|00-00--00-00-|
|00-00--00-00-|
 .. ..  .. ..

Breakdown Part 3 Cont.- 3:01
This part is the piano but it still sounds cool on Guitar
|----------------------------------10--10--10--10--10--10--10--10-----------|
|-9---9---9---9---9---9---9---9------9---9---9---9---9---9---9---9----------|
|---7---7---7---7---7---7---7---7-------------------------------------------|
|---------------------------------------------------------------------------|
|---------------------------------------------------------------------------|
|---------------------------------------------------------------------------|
So after Brad(Keyboardist) plays this twice, Then Jay comes in with this

|-16---------|
|---15-------|
|------------| play that till the end of the song, now play this with your
|------------| Friends,Have fun. If you want Give me feed back at
|------------| http://www.myspace.com/ginsan : )
|------------|

---------------------------------------------------------------------
             10.There's No Penguins in Alaska - Chiodos
---------------------------------------------------------------------
Tabbed by:Tomas Abrigo & Roderick Ross
Email:skater_tomas@hotmail.com

From the 2005 Album ALL'S WELL THAT ENDS WELL

Tuning:Dadgbe

both guitars 0:00
e|------------------------------------------|
B|------------------------------------------|
G|------------------------------------------|
D|-7-7-777-777-7-5-3-333-555-5----x4--------|
A|-5-5-555-555-5-3-1-111-333-3--------------|
d|------------------------------------------|

lead 0:19
e|-----------------------------------------------------------------------|
B|-----------------------------------------------------------------------|
G|-----------------------------------------------------------------------|
D|-7-7-777-777-7-5-------7+-7+--5+-5+-----------7+-7+--5+-5+-------------|
A|-5-5-555-555-5-3-------------------5+-5+------------------5+-5+--------|
d|------------------5+-5+------------------5+-5+-------------------------|

lead 0:24
e|------------------------------------------------------------------|
B|------------------------------------------------------------------|
G|------------------------------------------------------------------|
D|5-3/7-5--5-5555-----7+-7+-5+-5+-------------7+-7+-5+-5+-------x4--|
A|3-1/5-3--3-3333-----------------5+-5+-------------------5+-5+-----|
d|----------------5+-5+-----------------5+-5+-----------------------|

rhythm 0:24                        0:38
e|--------------------------------|-----------------|
B|--------------------------------|-----------------|
G|--------------------------------|-----------------|
D|5-3/9-5--5-5555-3-3333-55555-x3-|-5-3/9-5--5-5555-|
A|3-1/7-3--3-3333-1-1111-33333----|-3-1/7-3--3-3333-|
d|--------------------------------|-----------------|

0:43
e|---------|
B|---------|
G|---------|
D|-3-0~----|
A|-1-0~----|
d|---0~----|

rhythm 1:02
e|------------------------|
B|------------------------|
G|-77-7777-7777-----------|
D|-xx-xxxx-xxxx--x16------|
A|-55-5555-5555-----------|
d|------------------------|


lead 1:21
e|----13-------15-13----13-------15-13----13--------------|
B|-15----17-13-------17----17-13-------17----17-13--------|
G|--------------------------------------------------x6----|
D|--------------------------------------------------------|
A|--------------------------------------------------------|
d|--------------------------------------------------------|

Breakdown lead 1:42
e|--------------------------------------------------|
B|--------------------------------------------------|
G|--------------------------------------------------|
D|---------------------3-2h3p2---2------------------|
A|-----5-3-5-8-7-5h7-1---------3---3----------------|
d|-0------------------------------------------------|
   . .
breakdown lead 1:47
e|------------------------------------------------------------------------|
B|------------------------------------------------------------------------|
G|------------------33333-55555-------------------------------------------|
D|------------------33333-55555---------------------3-2h3p2-0-0-0---------|
A|--0-5-3-5-8-7-5h7-11111-33333---0-5-3-5-8-7-5h7-1---------0-0-0---------|
d|----------------------------------------------------------0-0-0---------|
                                                            . . .
rhythm 1:47
e|-----------------------------------------------------------------|
B|-----------------------------------------------------------------|
G|-----------------------------------------------------------------|
D|--7-7-777-777-7-5-33333-55555---7-7-777-777-7-5-33333-0-0-0------|
A|--5-5-555-555-5-3-11111-33333---5-5-555-555-5-3-11111-0-0-0--<3>-|
d|------------------------------------------------------0-0-0------|
                                                        . . .

2nd part of breakdown rythem 1:57
e|--------------------------------------------------------------------------|
B|--------------------------------------------------------------------------|
G|--------------------------------------------------------------------------|
D|-00-0000-00---------------------------------------------------------------|
A|-00-0000-00-x8------------------------------------------------------------|
d|-00-0000-00---------------------------------------------------------------|
   .. .... ..
2nd part of breakdown lead 1:57
e|-------------------------------------------------------------------------|
B|-------------------------------------------------------------------------|
G|-------------------------------------------------------------------------|
D|12p0-10p0-12p0-15p0-14p0-12h14p12-8p0-15p0-14p0-15p0-10p0--15p0-15h17-x4-|
A|-------------------------------------------------------------------------|
d|-------------------------------------------------------------------------|


lead 2:16
e|---------------------------------------------------------------|
B|---------------------------------------------------------------|
G|---------------------------------------------------------------|
D|5-3/7-5--5-5555------7+-7+-5+-5+-------------7+-7+-5+-5+-------|
A|3-1/5-3--3-3333------------------5+-5+-------------------5+-5+-|
D|----------------5+-5+------------------5+-5+-------------------|

e|------------------------------|
B|------------------------------|
G|------------------------------|
D|-5-3/9-5-5-5555--00-0000-00-x2|
A|-3-1/7-3-3-3333--00-0000-00---|
D|-----------------00-0000-00---|
                   .. .... ..


rhythm 2:16
e|---------------------------------------------------------|
B|---------------------------------------------------------|
G|---------------------------------------------------------|
D|5-3/9-5-5-5555-3-3333-55555-5-3/9-5-5-5555--00-0000-00-x2|
A|3-1/7-3-3-3333-1-1111-33333-3-1/7-3-3-3333--00-0000-00---|
D|--------------------------------------------00-0000-00---|
                                              .. .... ..

lead 2:35
e|------------------------------------------------|
b|-------6---6-----------------------------6---6--|
g|-------9---9-----------------------------9---9--|
d|-0~---------------------------------------------|
a|-0~------------------00--000-----000--00--------|
D|-0~------------------00--000-----000--00--------|
                       ..  ...     ...  ..
rhythm 2:35
e|---------------------------------------------------|
b|---------4---------------------------------4-------|
g|---------7---------------------------------7-------|
d|-0~------------------------------------------------|
a|-0~------------------00--000-----000--00-----------|
D|-0~------------------00--000-----000--00-----------|
                       ..  ...     ...  ..


i will finish this when i have more time
and if u have any questions just email me


| /  slide up
| \  slide down
| h  hammer-on
| p  pull-off
| ~  vibrato
|< > pinch harmonic
| +  harmonic
| x  Mute note


-----------------------------------------------------------------------
                 10.We're Gonna to have us a Champagne Jam
-----------------------------------------------------------------------


-----------------------------------------------------------------------------------------------------|
------------------------------------------------------------------------------15-15-15---------------|
---------------------15-15-15-14-14-14-------12-12-------------------15-15-15----------14-14-15-15---|
------------12-12-12-------------------15-15----------------12-12-12---------------------------------|
---10-10-10----------------------------------------10-10-10------------------------------------------|
-----------------------------------------------------------------------------------------------------|

-----------------------------------------------------------------------------------------------------|
-----------------------------------------------------------------------------------------------------|
---------------------15-15-15-14-14-14-14-14-14-14----------12-12-12-------10-10-10-10-10-10-10------|
------------12-12-12-------------------------------------------------10-10---------------------------|
---13-13-13------------------------------------------------------------------------------------------|
---------------------------------------------------10-10-10------------------------------------------|

------------------------------------------------------------------------------15-15-15---------------|
---------------------------------------------------------------------------------------15-15---------|
---------------------15-15-15-14-14-14-------12-12-------------------15-15-15----------------15-15---|
------------12-12-12-------------------15-15----------------12-12-12---------------------------------|
---10-10-10----------------------------------------10-10-10------------------------------------------|
-----------------------------------------------------------------------------------------------------|

-----------------------------------------------------------------------------------------------------|
-----------------------------------------------------------------------------------------------------|
---------------------15-15-15-14-14-14-14-14-14-14----------12-12-12-------10-10-10-10-10-10-12------|
------------12-12-12-------------------------------------------------12-12---------------------------|
---13-13-13------------------------------------------------------------------------------------------|
---------------------------------------------------10-10-10------------------------------------------|

-----------------------------------------------------------------------------------------------------------
              11.No Hardcore Dancing In the Living Room
-----------------------------------------------------------------------


      =  =  =  =  =  = ======Intro====== =  =  =  =  =  =  =
 Repeat 3 times
|------------------------------------------------------------------|
|-10------------------------------11-------------------------------|
|------------------------------------------------------------------|
|------------------------------------------------------------------|
|-8-----7----5-----8----7---57----10----8----7----10----8--78------|
|---00----00---00----00---0----------00---00---00----00---0--------|


|------------------------------------------------------------------|
|-10------------------------------11-------------------------------|
|------------------------------------------------------------------|
|------------------------------------------------------------------|
|-8-----7----5-----8----7---57----10----8----7----10---12--8-10----|
|---00----00---00----00---0----------00---00---00----00---0--------|


|------------------------------------------------------------------|
|------------------------------------------------------------------|
|10--99--77-10-9-7-9--12-10-9--12-10--9-10-------------------------|
|xx--xx--xx--x-x-x-x---x--x-x---x--x--x--x-------------------------|
|88--77--55--8-7-5-7--10--8-7--10--8--7--8-------------------------|
|------------------------------------------------------------------|


1:17
breakdown #1 plays twice then a couple times through background
|------------------------------------------------------------------|
|------------------------------------------------------------------|
|----10-----------10---------10------12---------14-----------------|
|-00---8-7-8-000-----7-0-00----8-7-8---11-10-11----13-12-----------|
|-00---------000---------00----------------------------------------|
|-00---------000---------00----------------------------------------|

part2
|------------------------------------------------------------------|
|--99-15-15-15-15-15-15-14-----------------------------------------|
|------------------------------------------------------------------|
|------------------------------------------------------------------|
|------------------------------------------------------------------|
|------------------------------------------------------------------|

fast tremelo picking.
|----1313-----1515-----1717-------1818-----------------------------|
|----1515-----1717-----1818-------2020-----------------------------|
|------------------------------------------------------------------|
|-00------000-------00-------000-----------------------------------|
|-00------000-------00-------000-----------------------------------|
|-00------000-------00-------000-----------------------------------|

piano....
"shredded by state lines"
..............
baby...this wont get any easier
|---1-----11-----0-----00-----1------11-------0------00------------|
|---3-----33-----2-----22-----3------33-------2------22------------|
|---2-----22-----2-----22-----2------22-------2------22------------|
|-0---000------0---000-----0----000------0-------000---------------|
|-0---000------0---000-----0----000------0-------000---------------|
|-0---000------0---000-----0----000------0-------000---------------|
play twice

|------------------------------------------------------------------|
|------------------------------------------------------------------|
|-101010--14-14---15-15-14-14-15-15-14-14--17-17-------------------|
|--xxxxx---x--x----x--x--x--x--x--x--x--x---x--x-------------------|
|--88888--12-12---13-13-12-12-13-13-12-12--15-15-------------------|
|------------------------------------------------------------------|

then
|------------------------------------------------------------------|
|------------------------------------------------------------------|
|10101010--14-14---------------------------------------------------|
|-x-x-x-x---x--x-----00-0000---33-3333---888888-1010101010---------|
|-8-8-8-8--12-12-----00-0000---33-3333---888888-1010101010---------|
|--------------------00-0000---33-3333---888888-1010101010---------|
                     .. ....   .. ....
strum freely with all but low E open
|-0--0--0--0--0--0--0--0--0--0--0--0--0--0--0--0--0--0--0--0--0--0-|
|-0--0--0--0--0--0--0--0--0--0--0--0--0--0--0--0--0--0--0--0--0--0-|
|-0--0--0--0--0--0--0--0--0--0--0--0--0--0--0--0--0--0--0--0--0--0-|
|-0--0--0--0--0--0--0--0--0--0--0--0--0--0--0--0--0--0--0--0--0--0-|
|-0--0--0--0--0--0--0--0--0--0--0--0--0--0--0--0--0--0--0--0--0--0-|
|------------------------------------------------------------------|

Do some pick slides on the upper strings to get the cool sound effects from the song.
then..

|-1-1---1-1----1----0-0-----0-0----0-----3-3---3-3---3---5-5---5-5---5|
|-3-3---3-3----3----1-1-----1-1----1-----5-5---5-5---5---6-6---6-6---6|
|---------------------------------------------------------------------|
|0-----0------0----0------0------0----0------0-----0---0-----0-----0--|
|0-----0------0----0------0------0----0------0-----0---0-----0-----0--|
|0-----0------0----0------0------0----0------0-----0---0-----0-----0--|
 .     .      .    .      .      .    .      .     .   .     .     .
|55-----55-----55-----55-44-------------------------------------------|
|66-----66-----66-----66-55-------------------------------------------|
|77-----77-----77-----77-66-------------------------------------------|
|---000----000----000-------------------------------------------------|
|---000----000----000-------------------------------------------------|
|---000----000----000-------------------------------------------------|

repeat that a couple times and your done..
hard song but good song.

fun to play.

and comments or hate mail send to Sk8WrL909@aol.com

~RonaldotheGreat
E>

----------------------------------------------------------------------------------------------
                       12.WHO'S SANDIE JENKINS
---------------------------------------------------------------

                             As recorded by Chiodos
                 (From the 2005 Album ALL'S WELL THAT ENDS WELL)

Words and Music by Chiodos
Arranged by Chiodos
Transcribed by Jonathan Rose

Gtr I (D A D G B E) - 'Dist. Left'
Gtr II (D A D G B E) - 'Dist. Right'
Gtr III (D A D G B E) - 'Synth Left'
Gtr IV (D A D G B E) - 'Synth Right'
Gtr V (D A D G B E) - 'Synth Center'
Gtr VI (D A D G B E) - 'Piano'

 Drums
  Dancefight Q=186
  N.C.
 4/4
  Gtrs III, IV
  Wx2
|--------||
|--------||
|--------||
|--------||
|--------||
|--------||


 Intro
  D5
  Gtr IV  Gtr III                 Gtr IV   Gtr III
   E   E   E   E   E   E   Q       E   E    E   E   E   E   Q
|-22--22------------------------|-22--22------------------------|
|-(3)-(3)-22--22--23--23--------|-(3)-(3)--22--22--23--23-------|
|---------(2)-(2)-(3)-(3)-24----|----------(2)-(2)-(3)-(3)-24---|
|-------------------------(5)---|--------------------------(5)--|
|-------------------------------|-------------------------------|
|-------------------------------|-------------------------------|
|
| Gtrs I, II
|  PM------------------------------------------------------------
|  E   E   E   E   Q       E  E    E   H..
|-------------------------------|-------------------------------|
|-------------------------------|-------------------------------|
|-------------------------------|-------------------------------|
|-------------------------------|-------------------------------|
|--0---0---0---0-----------0--0-|--0----------------------------|
|--0---0---0---0-----------0--0-|--0----------------------------|


  Gtr IV  Gtr III                 Gtr IV   Gtr III
   E   E   E   E   E   E   Q       E   E    E   E   E   E   Q
|-22--22------------------------|-22--22------------------------|
|-(3)-(3)-22--22--23--23--------|-(3)-(3)--22--22--23--23-------|
|---------(2)-(2)-(3)-(3)-24----|----------(2)-(2)-(3)-(3)-24---|
|-------------------------(5)---|--------------------------(5)--|
|-------------------------------|-------------------------------|
|-------------------------------|-------------------------------|
|
|-------------------------------------|
|  E   E   E   E   Q       E  E    E   H..
|-------------------------------|-------------------------------|
|-------------------------------|-------------------------------|
|-------------------------------|-------------------------------|
|-------------------------------|-------------------------------|
|--0---0---0---0-----------0--0-|--0----------------------------|
|--0---0---0---0-----------0--0-|--0----------------------------|


  D5
  Gtr IV  Gtr III                 Gtr IV   Gtr III
   E   E   E   E   E   E   Q       E   E    E   E   E   E   Q
|-22--22------------------------|-22--22------------------------|
|-(3)-(3)-22--22--23--23--------|-(3)-(3)--22--22--23--23-------|
|---------(2)-(2)-(3)-(3)-24----|----------(2)-(2)-(3)-(3)-24---|
|-------------------------(5)---|--------------------------(5)--|
|-------------------------------|-------------------------------|
|-------------------------------|-------------------------------|
|
|  PM------------------------------------------------------------
|  E   E   E   E   Q       E  E    E   H..
|-------------------------------|-------------------------------|
|-------------------------------|-------------------------------|
|-------------------------------|-------------------------------|
|-------------------------------|-------------------------------|
|--0---0---0---0-----------0--0-|--0----------------------------|
|--0---0---0---0-----------0--0-|--0----------------------------|


  Gtr IV  Gtr III                 Gtr V
   E   E   E   E   E   E   Q       E   E     E    E    E    E    Q
|-22--22------------------------|-22--22---(22)-(22)-(22)-(22)-(22)--||
|-(3)-(3)-22--22--23--23--------|-(3)-(3)---22---22---23---23--------||
|---------(2)-(2)-(3)-(3)-24----|-----------(2)--(2)--(3)--(3)--24---||
|-------------------------(5)---|-------------------------------(5)--||
|-------------------------------|------------------------------------||
|-------------------------------|------------------------------------||
|
|-------------------------------------|
|  E   E   E   E   Q       E  E    E   H..
|-------------------------------|------------------------------------||
|-------------------------------|------------------------------------||
|-------------------------------|------------------------------------||
|-------------------------------|------------------------------------||
|--0---0---0---0-----------0--0-|--0---------------------------------||
|--0---0---0---0-----------0--0-|--0---------------------------------||


   "Forget I even called.."
    D5             N.C.
    Gtr V
     Q    Q    Q    Q     Q    Q    Q   Q
||-----------------17--|-15----------------|
||o-15-----------------|------18---15--17--|
||-------15---14---14--|-12----------------|
||--12-----------------|------15---12--14--|
||o------13---12-------|-------------------|
||---------------------|-------------------|
|
|   Gtr I
|    PM-------|
|    E E  E E  E E  Q     E E  E E  q   Q
||---------------------|-------------------|
||o--------------------|-------------------|
||------------------7--|----9--9-9--9---9--|
||------------------x--|----x--x-x--x---x--|
||o--0-0--0-0--0----5--|----7--7-7--7---7--|
||---0-0--0-0--0-------|-------------------|
|
|   Gtr II
|    PM-------|
|    E E  E E  E E  Q     E E  E E  q   Q
||---------------------|-------------------|
||o--------------------|-------------------|
||------------------7--|----9--9-9--9---9--|
||------------------x--|----x--x-x--x---x--|
||o--0-0--0-0--0----5--|----7--7-7--7---7--|
||---0-0--0-0--0-------|-------------------|


   Q     Q     Q   Q     Q     Q     Q     Q
|-----------------17--|-15----17----18----17------||
|-15------------------|--------------------------o||
|-------15----14--14--|-12----14----15----14------||
|-12------------------|---------------------------||
|-------13----12------|--------------------------o||
|---------------------|---------------------------||
|
|  E  E  E  E  q   Q     E  E  E  E  E  E  E  E
|---------------------|---------------------------||
|---------------------|----15-15-15-15-15-15-15--o||
|----10-10-10-10--10--|-----x--x--x--x--x--x--x---||
|-----x--x--x--x---x--|----12-12-12-12-12-12-12---||
|-----8--8--8--8---8--|--------------------------o||
|---------------------|---------------------------||
|
|  E  E  E  E  q   Q     E  E  E  E  E  E  E  E
|---------------------|---------------------------||
|---------------------|--------------------------o||
|----10-10-10-10--10--|-----3--3--3--3--3--3--3---||
|-----x--x--x--x---x--|-----x--x--x--x--x--x--x---||
|-----8--8--8--8---8--|-----1--1--1--1--1--1--1--o||
|---------------------|---------------------------||


  D5                      E5
   Q    Q    Q    Q     Q     Q     Q   Q
|----------------17--|-15------------------|
|-15-----------------|-------18----15--17--|
|------15---14---14--|-12------------------|
|-12-----------------|-------15----12--14--|
|------13---12-------|---------------------|
|--------------------|---------------------|
|
|  PM-------|              PM---------------
|  E E  E E  E E  Q     E  q     E  q   Q
|--------------------|---------------------|
|--------------------|---------------------|
|--------------------|---------------------|
|-----------------0--|---------------------|
|--0-0--0-0--0----0--|-----2-----2--2---2--|
|--0-0--0-0--0----0--|-----2-----2--2---2--|
|
|  PM-------|
|  E E  E E  E E  Q     E  E  E  E  q   Q
|--------------------|---------------------|
|--------------------|---------------------|
|-----------------7--|----12-12-12-12--12--|
|-----------------x--|-----x--x--x--x---x--|
|--0-0--0-0--0----5--|----10-10-10-10--10--|
|--0-0--0-0--0-------|---------------------|


     F5                    N.C.
   Q     Q     Q   Q     Q     Q     Q     Q
|-----------------17--|-15----17----18----17----|
|-15------------------|-------------------------|
|-------15----14--14--|-12----14----15----14----|
|-12------------------|-------------------------|
|-------13----12------|-------------------------|
|---------------------|-------------------------|
|
|-----------------|
|  E  q     E  q   Q     E  E  E  E  E  E  E  E
|---------------------|-------------------------|
|---------------------|----15-15-15-15-15-15-15-|
|---------------------|-----x--x--x--x--x--x--x-|
|---------------------|----12-12-12-12-12-12-12-|
|-----3-----3--3---3--|-------------------------|
|-----3-----3--3---3--|-------------------------|
|
|  E  E  E  E  q   Q     E  E  E  E  E  E  E  E
|---------------------|-------------------------|
|---------------------|-------------------------|
|----10-10-10-10--10--|-----3--3--3--3--3--3--3-|
|-----x--x--x--x---x--|-----x--x--x--x--x--x--x-|
|-----8--8--8--8---8--|-----1--1--1--1--1--1--1-|
|---------------------|-------------------------|


  D5                       E5
   Q    Q     Q    Q     Q     Q     Q   Q
|-----------------17--|-15------------------|
|-15------------------|-------18----15--17--|
|------15----14---14--|-12------------------|
|-12------------------|-------15----12--14--|
|------13----12-------|---------------------|
|---------------------|---------------------|
|
|  PM--------|              PM---------------
|  E E  E  E  E E  Q     E  q     E  q   Q
|---------------------|---------------------|
|---------------------|---------------------|
|---------------------|---------------------|
|------------------0--|---------------------|
|--0-0--0--0--0----0--|-----2-----2--2---2--|
|--0-0--0--0--0----0--|-----2-----2--2---2--|
|
|  PM--|      PM|
|  E E  E  E  E E  Q     E  q     E  q   Q
|---------------------|---------------------|
|---------------------|---------------------|
|---------14------14--|----12----12-12--12--|
|----------x-------x--|-----x-----x--x---x--|
|--0-0--0-12--0-0-12--|----10----10-10--10--|
|--0-0--0-----0-0-----|---------------------|


     F5                    N.C.
   Q     Q     Q   Q     Q     Q     Q     Q
|-----------------17--|-15----17----18----17----||
|-15------------------|-------------------------||
|-------15----14--14--|-12----14----15----14----||
|-12------------------|-------------------------||
|-------13----12------|-------------------------||
|---------------------|-------------------------||
|
|-----------------|
|  E  q     E  q   Q     E  E  E  E  E  E  E  E
|---------------------|-------------------------||
|---------------------|----15-15-15-15-15-15-15-||
|---------------------|-----x--x--x--x--x--x--x-||
|---------------------|----12-12-12-12-12-12-12-||
|-----3-----3--3---3--|-------------------------||
|-----3-----3--3---3--|-------------------------||
|
|  E  q     E  q   Q     E  E  E  E  E  E  E  E
|---------------------|-------------------------||
|---------------------|-------------------------||
|----10----10-10--10--|-----3--3--3--3--3--3--3-||
|-----x-----x--x---x--|-----x--x--x--x--x--x--x-||
|-----8-----8--8---8--|-----1--1--1--1--1--1--1-||
|---------------------|-------------------------||


 "Pull the hair from my.."
  D5                   N.C.      D5             N.C.
   |----3----|
   E    E    E    H.              +W
|------------------------------|-----------------------------|
|-15---17---18---15------------|-(15)------------------------|
|------------------------------|-----------------------------|
|-12---14---15---12------------|-(12)------------------------|
|------------------------------|-----------------------------|
|------------------------------|-----------------------------|
|
| Gtr I
|  PM----------------| ~           PM---------|          ~-|
|                                               |--3-------|
|  S S    S    S  E  E H           S  S S S E E E E    E Q
|------------------------------|-----------------------------|
|------------------------------|-----------------------------|
|----------------------7-------|----------------7-9---10-9---|
|------------------------------|-----------------------------|
|--0-0----0----0--0--0---------|---0--0-0-0-0-0--------------|
|--0-0----0----0--0--0---------|---0--0-0-0-0-0--------------|
|
| Gtr II
|  E      E       E  E E E E E     E    E   E E E   E    E E
|------------------------------|-----------------------------|
|------------------------------|-----------------------------|
|--7------7-------7--7-7-7-7-7-|---7----7---7-7-7---7----7-7-|
|--x------x-------x--x-x-x-x-x-|---x----x---x-x-x---x----x-x-|
|--5------5-------5--5-5-5-5-5-|---5----5---5-5-5---5----5-5-|
|------------------------------|-----------------------------|


  D5                   N.C.      D5             N.C.
   |----3----|
   E    E    E    H.              +W
|------------------------------|----------------------------------|
|-15---17---18---17------------|-(17)-----------------------------|
|------------------------------|----------------------------------|
|-12---14---15---14------------|-(14)-----------------------------|
|------------------------------|----------------------------------|
|------------------------------|----------------------------------|
|
|  PM----------------| ~           PM---------|            ~~-|
|                                               |---3---------|
|  S S    S    S  E  E H           S  S S S E E E  E    E  Q
|------------------------------|----------------------------------|
|------------------------------|----------------------------------|
|----------------------9-------|----------------9-10---12-10------|
|------------------------------|----------------------------------|
|--0-0----0----0--0--0---------|---0--0-0-0-0-0-------------------|
|--0-0----0----0--0--0---------|---0--0-0-0-0-0-------------------|
|
|  E      E       E  E E E E E     E    E   E E E    E     E E
|------------------------------|----------------------------------|
|------------------------------|----------------------------------|
|--3------3-------3--3-3-3-3-3-|----------------------------------|
|--x------x-------x--x-x-x-x-x-|---7----7---7-7-7----7-----7-7----|
|--1------1-------1--1-1-1-1-1-|---x----x---x-x-x----x-----x-x----|
|------------------------------|---7----7---7-7-7----7-----7-7----|


  D5                   N.C.      D5             N.C.
   |----3----|
   E    E    E    H.              +H             H
|------------------------------|----------------15------------|
|-17---18---20---18------------|-(18)-------------------------|
|------------------------------|----------------12------------|
|-14---15---17---15------------|-(15)-------------------------|
|------------------------------|------------------------------|
|------------------------------|------------------------------|
|
|  PM----------------| ~           PM---------|           ~-|
|                                                |--3-------|
|  S S    S    S  E  E H           S  S S S E E  E E    E Q
|------------------------------|------------------------------|
|------------------------------|------------------------------|
|----------------------7-------|-----------------7-9---10-9---|
|------------------------------|------------------------------|
|--0-0----0----0--0--0---------|---0--0-0-0-0-0---------------|
|--0-0----0----0--0--0---------|---0--0-0-0-0-0---------------|
|
|  E      E       E  E E E E E     E    E   E E  E   E    E E
|------------------------------|------------------------------|
|------------------------------|------------------------------|
|--7------7-------7--7-7-7-7-7-|---7----7---7-7--7---7----7-7-|
|--x------x-------x--x-x-x-x-x-|---x----x---x-x--x---x----x-x-|
|--5------5-------5--5-5-5-5-5-|---5----5---5-5--5---5----5-5-|
|------------------------------|------------------------------|


  D5           N.C.       D5       N.C. D5       N.C.
   H            H          H             Q        Q
|-17-----------15-------|-13------------12-------13----||
|-----------------------|------------------------------||
|-14-----------12-------|-10-------------9-------10----||
|-----------------------|------------------------------||
|-----------------------|------------------------------||
|-----------------------|------------------------------||
|
|  PM--------|  ~~         PM----|       PM----|
|  S S S S E E  H          S S S S  Q    S S S S  Q
|-----------------------|------------------------------||
|-----------------------|------------------------------||
|---------------9-------|----------12------------14----||
|-----------------------|-----------x-------------x----||
|--0-0-0-0-0-0----------|--0-0-0-0-10----0-0-0-0-12----||
|--0-0-0-0-0-0----------|--0-0-0-0-------0-0-0-0-------||
|
|  E   E   E E  E E E E    E   E    E E  E   E    E E
|-----------------------|------------------------------||
|-----------------------|------------------------------||
|--3---3---3-3--3-3-3-3-|----------------5---5----5-5--||
|--x---x---x-x--x-x-x-x-|--7---7----7-7--x---x----x-x--||
|--1---1---1-1--1-1-1-1-|--x---x----x-x--3---3----3-3--||
|-----------------------|--7---7----7-7----------------||


 "Witness thoughts I.."
   E    E    q    q    q      q        q    q         q
|------13------------------|------------------------------|
|-15---15---15---15---15---|-15-------15---15--------15---|
|--------------------------|------------------------------|
|-12---12---12---12---12---|-12-------12---12--------12---|
|--------------------------|------------------------------|
|--------------------------|------------------------------|
|
|  PM----------|  ~~          PM---------|            ~~-|
|                                           |--3---------|
|  S S  S S  E E  H           S S S S  E E  E E    E  Q
|--------------------------|------------------------------|
|--------------------------|------------------------------|
|-----------------7--------|----------------7-9---10--9---|
|--------------------------|------------------------------|
|--0-0--0-0--0-0-----------|--0-0-0-0--0-0----------------|
|--0-0--0-0--0-0-----------|--0-0-0-0--0-0----------------|
|
|  E    E    E E  E E  E E    E   E    E E  E   E     E E
|--------------------------|------------------------------|
|--------------------------|------------------------------|
|--7----7----7-7--7-7--7-7-|--7---7----7-7--7---7-----7-7-|
|--x----x----x-x--x-x--x-x-|--x---x----x-x--x---x-----x-x-|
|--5----5----5-5--5-5--5-5-|--5---5----5-5--5---5-----5-5-|
|--------------------------|------------------------------|


   q        q    q    q      q        q    q          q
|-------------------------|-------------------------------|
|-17-------17---17---17---|-17-------17---17---------17---|
|-------------------------|-------------------------------|
|-14-------14---14---14---|-14-------14---14---------14---|
|-------------------------|-------------------------------|
|-------------------------|-------------------------------|
|
|  PM---------|  ~~          PM---------|             ~~-|
|                                          |---3---------|
|  S S S S  E E  H           S S S S  E E  E  E    E  Q
|-------------------------|-------------------------------|
|-------------------------|-------------------------------|
|----------------9--------|----------------9-10---12-10---|
|-------------------------|-------------------------------|
|--0-0-0-0--0-0-----------|--0-0-0-0--0-0-----------------|
|--0-0-0-0--0-0-----------|--0-0-0-0--0-0-----------------|
|
|  E   E    E E  E E  E E    E   E    E E  E    E     E E
|-------------------------|-------------------------------|
|-------------------------|-------------------------------|
|--3---3----3-3--3-3--3-3-|-------------------------------|
|--x---x----x-x--x-x--x-x-|--7---7----7-7--7----7-----7-7-|
|--1---1----1-1--1-1--1-1-|--x---x----x-x--x----x-----x-x-|
|-------------------------|--7---7----7-7--7----7-----7-7-|


   E    E    q    q    q      q        q    q         q
|------17------------------|------------------------------|
|-18---18---18---18---18---|-18-------18---18--------18---|
|--------------------------|------------------------------|
|-15---15---15---15---15---|-15-------15---15--------15---|
|--------------------------|------------------------------|
|--------------------------|------------------------------|
|
| Gtr I
|  PM----------|  ~~          PM---------|            ~~-|
|                                           |--3---------|
|  S S  S S  E E  H           S S S S  E E  E E    E  Q
|--------------------------|------------------------------|
|--------------------------|------------------------------|
|-----------------7--------|----------------7-9---10--9---|
|--------------------------|------------------------------|
|--0-0--0-0--0-0-----------|--0-0-0-0--0-0----------------|
|--0-0--0-0--0-0-----------|--0-0-0-0--0-0----------------|
|
| Gtr II
|  E    E    E E  E E  E E    E   E    E E  E   E     E E
|--------------------------|------------------------------|
|--------------------------|------------------------------|
|--7----7----7-7--7-7--7-7-|--7---7----7-7--7---7-----7-7-|
|--x----x----x-x--x-x--x-x-|--x---x----x-x--x---x-----x-x-|
|--5----5----5-5--5-5--5-5-|--5---5----5-5--5---5-----5-5-|
|--------------------------|------------------------------|


   H            H          H            H
|-17-----------18-------|-20-----------22--------------||
|-----------------------|------------------------------||
|-14-----------15-------|-17-----------19--------------||
|-----------------------|------------------------------||
|-----------------------|------------------------------||
|-----------------------|------------------------------||
|
|  PM--------|  ~~         PM--------|             ~~-|
|                                       |---3---------|
|  S S S S E E  H          S S S S E E  E  E    E  Q
|-----------------------|------------------------------||
|-----------------------|------------------------------||
|---------------9-------|---------------9-10---12-10---||
|-----------------------|------------------------------||
|--0-0-0-0-0-0----------|--0-0-0-0-0-0-----------------||
|--0-0-0-0-0-0----------|--0-0-0-0-0-0-----------------||
|
|  E   E   E E  E E E E    E   E   E E  E    E     E E
|-----------------------|------------------------------||
|-----------------------|------------------------------||
|--3---3---3-3--3-3-3-3-|---------------5----5-----5-5-||
|--x---x---x-x--x-x-x-x-|--7---7---7-7--x----x-----x-x-||
|--1---1---1-1--1-1-1-1-|--x---x---x-x--3----3-----3-3-||
|-----------------------|--7---7---7-7-----------------||


 Bridge
  D5                                    Bb5A5
  Gtrs I, II
  PM----|     PM----|       PM----|
  S S S S e E S S S S e E   S S S S e E Q  Q
|-------------------------|-------------------|
|-------------------------|-------------------|
|-------------------------|-------------------|
|-------------------------|-------------8--7--|
|-0-0-0-0-0---0-0-0-0-0---|-0-0-0-0-0---8--7--|
|-0-0-0-0-0---0-0-0-0-0---|-0-0-0-0-0---8--7--|


  Gtr V
   Q   Q   Q   E  E    +E   Q   E  E  E  Q
|-----18--17--------|-------------20-18-22--||
|-15----------18-20-|-(20)-20--20-----------||
|-----15--14--------|-------------17-15-19--||
|-12----------15-17-|-(17)-17--17-----------||
|-------------------|-----------------------||
|-------------------|-----------------------||


   *Breakdown*
    D5                                              Bb5 A5
    Gtr V
     Q        Q    Q        E  E    +E     Q      E  Q   Q
||-----------18---17-------------|------------------20--20--|
||o-15---------------------18-20-|-(20)---20-----20---------|
||-----------15---14-------------|------------------17--17--|
||--12---------------------15-17-|-(17)---17-----17---------|
||o------------------------------|--------------------------|
||-------------------------------|--------------------------|
|
|   Gtrs I, II
|    PM----|       PM----|           PM------|
|    S S S S  e E  S S S S  e  E     S  S  S S e  E  Q   Q
||-------------------------------|--------------------------|
||o------------------------------|--------------------------|
||-------------------------------|--------------------------|
||-------------------------------|-------------------8---7--|
||o--0-0-0-0--0----0-0-0-0--0----|---0--0--0-0-0-----8---7--|
||---0-0-0-0--0----0-0-0-0--0----|---0--0--0-0-0-----8---7--|


  D5                                              Bb5 A5
   Q        Q    Q        E  E    +E     Q      E  Q   Q
|----------18---17-------------|------------------20--20-----||
|-15---------------------18-20-|-(20)---20-----20-----------o||
|----------15---14-------------|------------------17--17-----||
|-12---------------------15-17-|-(17)---17-----17------------||
|------------------------------|----------------------------o||
|------------------------------|-----------------------------||
|
|  PM----|       PM----|           PM------|
|  S S S S  e E  S S S S  e  E     S  S  S S e  E  Q   Q
|------------------------------|-----------------------------||
|------------------------------|----------------------------o||
|------------------------------|-----------------------------||
|------------------------------|-------------------8---7-----||
|--0-0-0-0--0----0-0-0-0--0----|---0--0--0-0-0-----8---7----o||
|--0-0-0-0--0----0-0-0-0--0----|---0--0--0-0-0-----8---7-----||


  D5                                                Bb5 A5
   e    e    e  e  e    e    e  e    e    e    e  e  Q   Q
|-----------18-18-17---17---------|-----------------20--20--|
|-15---15-------------------18-18-|-20---20---20-20---------|
|-----------15-15-14---14---------|-----------------17--17--|
|-12---12-------------------15-15-|-17---17---17-17---------|
|---------------------------------|-------------------------|
|---------------------------------|-------------------------|
|
|  PM-----|        PM-----|          PM-----|
|  S S  S S  e  E  S S  S S  e  E    S S  S S  e  E  Q   Q
|---------------------------------|-------------------------|
|---------------------------------|-------------------------|
|---------------------------------|-------------------------|
|---------------------------------|------------------8---7--|
|--0-0--0-0--0-----0-0--0-0--0----|--0-0--0-0--0-----8---7--|
|--0-0--0-0--0-----0-0--0-0--0----|--0-0--0-0--0-----8---7--|


  D5                                                Bb5 A5
   e    e    e  e  e    e    e  e    e    e    e  e  Q   Q
|-----------18-18-17---17---------|-----------------20--20--||
|-15---15-------------------18-18-|-20---20---20-20---------||
|-----------15-15-14---14---------|-----------------17--17--||
|-12---12-------------------15-15-|-17---17---17-17---------||
|---------------------------------|-------------------------||
|---------------------------------|-------------------------||
|
|  PM-----|        PM-----|          PM-----|
|  S S  S S  e  E  S S  S S  e  E    S S  S S  e  E  Q   Q
|---------------------------------|-------------------------||
|---------------------------------|-------------------------||
|---------------------------------|-------------------------||
|---------------------------------|------------------8---7--||
|--0-0--0-0--0-----0-0--0-0--0----|--0-0--0-0--0-----8---7--||
|--0-0--0-0--0-----0-0--0-0--0----|--0-0--0-0--0-----8---7--||


 Tick-tock
  N.C.
  Gtr V
  Q  Q  Q  Q    Q  Q  Q  Q    Q  Q  Q  Q    Q  Q  Q  Q
|----x-----x--|----x-----x--|----x-----x--|----x-----x--||
|-------------|-------------|-------------|-------------||
|-x-----x-----|-x-----x-----|-x-----x-----|-x-----x-----||
|-------------|-------------|-------------|-------------||
|-------------|-------------|-------------|-------------||
|-------------|-------------|-------------|-------------||


   Interlude
    (Dm)              (C)               (Bb)             (A)
    Gtr V
     Q   Q   Q   Q     Q   Q   Q   Q    Q    Q   Q  Q     Q    Q   Q   Q
||-------x-------x--|------x-------x--|------x------x--|-------x-------x---|
||o-----------------|-----------------|----------------|-------------------|
||---x-------x------|--x-------x------|-x--------x-----|--x--------x-------|
||------------------|-----------------|----------------|-------------------|
||o-----------------|-----------------|----------------|-------------------|
||------------------|-----------------|----------------|-------------------|
|
|   Gtr VI
|    Q   Q   Q   Q     Q   Q   Q   Q    Q    Q   Q  Q    +Q    Q   Q   Q
||--------------13--|-------------12--|---------10--9--|-(9)--10--12--10---|
||o---------15------|---------13------|----------------|-------------------|
||------14----------|-----12----------|-----10---------|-------------------|
||--12--------------|-10--------------|-8--------------|-------------------|
||o-----------------|-----------------|----------------|-------------------|
||--12--------------|-10--------------|-8-----------7--|-(7)---------------|
     W                 W                H.          Q    +W


  1.
  (Bmaj13)                    (Fmaj13)
   Q   Q   Q   Q      Q    Q   Q   Q
|------x-------x--|--------x-------x--|
|-----------------|-------------------|
|--x-------x------|---x--------x------|
|-----------------|-------------------|
|-----------------|-------------------|
|-----------------|-------------------|
|
|  Q   Q   Q   Q     +Q    Q   Q   Q
|-------------15--|-(15)--13--12--13--|
|---------15------|-------------------|
|-----14----------|-------------------|
|-12--------------|-------------------|
|-----------------|------------8------|
|--8--------------|--(8)--------------|
   W                 +H        Q   Q


  (E)        Eb5         N.C.
  Q   Q   Q   Q      Q     Q     Q     Q
|-----x-------x--|---------x-----------x----||
|----------------|-------------------------o||
|-x-------x------|---x-----------x----------||
|----------------|--------------------------||
|----------------|-------------------------o||
|----------------|--------------------------||
|
| Q   Q   Q   Q     +Q     Q     Q     Q
|------------18--|-(18)---20----18----17----||
|----10--11--17--|-(17)--(17)--(17)--(17)--o||
|-9--------------|--------------------------||
|----------------|--------------------------||
|-7--------------|--(7)--------------------o||
|----------------|--------------------------||
  W                 +W


  2.
  (Dsus4)                               N.C.
   Q   Q   Q   Q      Q    Q   Q   Q     W            W
|------x-------x--|--------x-------x--|-------------|------||
|-----------------|-------------------|-------------|------||
|--x-------x------|---x--------x------|-------------|------||
|-----------------|-------------------|-------------|------||
|-----------------|-------------------|-------------|------||
|-----------------|-------------------|-------------|------||
|
|  Q   Q   Q   Q     +Q    Q   Q   Q     Q  H.        W
|-------------15--|-(15)--13--12--13--|-18----------|------||
|---------15------|-------------------|-17----------|------||
|-----14----------|-------------------|-15----------|------||
|-12--------------|-------------------|-14----------|------||
|-----------------|-------------------|-------------|------||
|-12--------------|-(12)--------------|-------------|------||
   W                 +W


 "May it be the last of our.."
  F                         Em
 2/2
  Gtr VI
   W            W            W            W
|------------|------------|------------|--------|
|-10---------|-10---------|--8---------|--8-----|
|-10---------|-10---------|--9---------|--9-----|
|-(7)--------|-(7)--------|-(5)--------|-(5)----|
|-(8)--------|-(8)--------|-(7)--------|-(7)----|
|------------|------------|------------|--------|


  Dm                        C
   W            W            W           +W
|------------|------------|------------|--------|
|--6---------|--6---------|--5---------|-(5)----|
|--7---------|--7---------|--5---------|-(5)----|
|-(3)--------|-(3)--------|-(2)--------|-(2)----|
|-(5)--------|-(5)--------|-(3)--------|-(3)----|
|------------|------------|------------|--------|


  C            Dm
  +W            W           +W             +W      4x
|------------|-(5)--------|-(5)--------||--(5)-----||
|-(5)--------|--6---------|-(6)--------||o-(6)----o||
|-(5)--------|--7---------|-(7)--------||--(7)-----||
|-(2)--------|--3---------|-(3)--------||--(3)-----||
|-(3)--------|--5---------|-(5)--------||o-(5)----o||
|------------|------------|------------||----------||


Duration Legend
---------------
W - whole; H - half; Q - quarter; E - 8th; S - 16th; T - 32nd; X - 64th; a - acciaccatura
+ - note tied to previous; . - note dotted; .. - note double dotted
Uncapitalized letters represent notes that are staccato (1/2 duration)
Irregular groupings are notated above the duration line
Duration letters will always appear directly above the note/fret number it represents the
duration for.  Duration letters with no fret number below them represent rests.  Multi-
bar rests are notated in the form Wxn, where n is the number of bars to rest for.  Low
melody durations appear below the staff

Tablature Legend
----------------
 h   - hammer-on
 p   - pull-off
 b   - bend
 pb  - pre-bend
 r   - bend release (if no number after the r, then release immediately)
 /\  - slide into or out of (from/to "nowhere")
 s   - legato slide
 S   - shift slide
  - natural harmonic
[n]  - artificial harmonic
n(n) - tapped harmonic
 ~   - vibrato
 tr  - trill
 T   - tap
 TP  - trem. picking
 PM  - palm muting
\n/  - tremolo bar dip; n = amount to dip
 \n  - tremolo bar down
 n/  - tremolo bar up
/n\  - tremolo bar inverted dip
 =   - hold bend; also acts as connecting device for hammers/pulls
 <>  - volume swell (louder/softer)
 x   - on rhythm slash represents muted slash
 o   - on rhythm slash represents single note slash

Misc Legend
-----------
 |  - bar
||  - double bar
||o - repeat start
o|| - repeat end
*|  - double bar (ending)
 :  - bar (freetime)
 $  - Segno
 &  - Coda
Tempo markers -  = BPM(8/16=s8/s16), where s8 = swing 8ths, s16 = swing 16ths


------------------------------------------------------------------------------
         13.TO TRIXIE AND REPTILE, THANKS
-------------------------------------------------------------------------------
Tabbed by: empty handed

Tuning: drop D

guitar 1
e|--------------------|
B|--------------------|
G|1313xx1111xx99xx88xx|
D|xxxxxxxxxxxxxxxxxxxx|x3
A|1111xx9--9xx77xx66xx|
D|--------------------|

e|--------------------------|
B|--------------------------|
G|1212121212121212----------|
D|xxxxxxxxxxxxxxxx----------|
A|141414141414141444444444--|
D|----------------44444444--|
                  ........

e|--------------------|
B|--------------------|
G|1313xx1111xx--1111--|
D|xxxxxxxxxxxx--xxxx--|
A|1111xx9--9xx--9--9--|
D|--------------------|

guitar 2 (comes in second time)
e|-----------------------------------------------------------------|
B|-----------------------------------------------------------------|
G|66xx88xx99xx88xx66xx88xx99xx88-16161616161616161313131313131313--|
D|xxxxxxxxxxxxxxxxxxxxxxxxxxxxxx-xxxxxxxxxxxxxxxxxxxxxxxxxxxxxxxx--|
A|44xx66xx77xx66xx44xx66xx77xx66-14141414141414141111111111111111--|
D|-----------------------------------------------------------------|

e|----------------|
B|----------------|
G|66xx88xx--1111--|
D|xxxxxxxx--xxx---|
A|44xx66xx--9-9-----|
D|------------------|

verse (both guitars)
e|-------------------------------------------------------------------------------------------|
B|-------------------------------------------------------------------------------------------|
G|66xx88xx99xx88xx99xx1111xx99xx88xx66xx88xx99xx88xx161616161616161616161616161616-----------|
D|xxxxxxxxxxxxxxxxxxxxxxxxxxxxxxxxxxxxxxxxxxxxxxxxxxxxxxxxxxxxxxxxxxxxxxxxxxxxxxxx----6~---6-|
A|44xx66xx77xx66xx77xx9--9xx77xx66xx44xx66xx77xx66xx141414141414141414141414141414----4~---4-|
D|-------------------------------------------------------------------------------------------|

guitar 1
e|----------------------|
B|----------------------|
G|----------------------|
D|------4---------------|x3
A|4-6-7--4-7-7-7-6-6-6--|
D|----------------------|
  ....................

guitar 2
e|----------------------------------------------------------|
B|----------------------------------------------------------|
G|13-1313-9-999-111111-13-1313-9-999-888-13-1313-9-999-1111-|
D|xx-xxxx-xxxxx-xxxxx--x--xxxx-x-xxx-xxx-x--xxxx-x-xxx-xxxx-|
A|11-1111-7-777-9-9-9--11-1111-7-777-666-11-1111-7-777-9-9--|
D|----------------------------------------------------------|

chorus - both guitars
e|---------------------------------------------------|
B|---------------------------------------------------|
G|---------------------------------------------------|
D|666664442226666644422266666444222-444-444-222-222--|
A|444442220004444422200044444222000-222-222-000-000--|
E|---------------------------------------------------|
                                    ..  ..  ..  ..

e|----------------------------------------|
B|----------------------------------------|
G|----------------------------------------|
D|666664442226666644422266666444222-44-2~-|
A|444442220004444422200044444222000-22-0~-|
E|----------------------------------------|

verse

guitar 1
e|-----------------------------------------------------|
B|-----------------------------------------------------|
G|1313131313131313131313131313131313131313131313131313-|
D|xxxxxxxxxxxxxxxxxxxxxxxxxxxxxxxxxxxxxxxxxxxxxxxxxxxx-|
A|1111111111111111111111111111111111111111111111111111-|
D|-----------------------------------------------------|
  ....................................................

e|-----------------------------------------------------|
B|-----------------------------------------------------|
G|9xxxxxx9xxxxxx9xxxxxx99999999-9xxxxxx9xxxxxx9xxxxxx--|
D|xxxxxxxxxxxxxxxxxxxxxxxxxxxxx-xxxxxxxxxxxxxxxxxxxxx--|
A|7xxxxxx7xxxxxx7xxxxxx77777777-7xxxxxx7xxxxxx7xxxxxx--|
D|-----------------------------------------------------|

guitar 2
e|----------------------------------------|
B|----------------------------------------|
G|14141313111199xxxx1414131316161414xxxx--|
D|xxxxxxxxxxxxxxxxxxxxxxxxxxxxxxxxxxxxxx--|
A|121211119--977xxxx1212111114141212xxxx--|
D|----------------------------------------|

e|-------------------------------------------------------|
B|------------------------9-10-9-------------------------|
G|9xxxxxx9xxxxxx9xxxxxx-99-9--9-9-9xxxxxx9xxxxxx9xxxxxx--|
D|xxxxxxxxxxxxxxxxxxxxxxxxxxxxxxxxxxxxxxxxxxxxxxxxxxxxx--|
A|7xxxxxx7xxxxxx7xxxxxx-----------7xxxxxx7xxxxxx7xxxxxx--|
D|-------------------------------------------------------|

chorus - both guitars
e|---------------------------------------------------|
B|---------------------------------------------------|
G|---------------------------------------------------|
D|666664442226666644422266666444222-444-444-222-222--|
A|444442220004444422200044444222000-222-222-000-000--|
E|---------------------------------------------------|
                                    ..  ..  ..  ..

e|--------------------------------------|
B|--------------------------------------|
G|--------------------------------------|
D|666664442226666644422266666444222-44--|
A|444442220004444422200044444222000-22--|
E|--------------------------------------|

bridge - clean

guitar 1
e|---------------------------------------|
B|2222222222222222222222222222222222222--|
G|---------------------------------------|
D|---------------------------------------|x a lot
A|---------------------------------------|
D|---------------------------------------|
  .....................................

guitar 2
e|00000000000000000000000000000000000000-|
B|---------------------------------------|
G|---------------------------------------|
D|---------------------------------------|
A|---------------------------------------|
D|---------------------------------------|
  ......................................

e|------------4------|
B|-5-7-5-x4--5-5-x4--|
G|4---------4--------|
D|-------------------|
A|-------------------|
D|-------------------|

only guitar 2
e|--------------------------------------|
B|-5-5-5-----4-4-4----5555555544444444--|
G|4-4-4-2-4-4-4-4-2-4-4444444444444444--|
D|--------------------------------------|
A|--------------------------------------|
D|--------------------------------------|

both guitars
e|-------------------------------------|
B|-------------------------------------|
G|6666666699999999--------111111111111-|
D|xxxxxxxxxxxxxxxxxxxxxxxxxxxxxxxxxxxx-|
A|4444444477777777777777779-9-9-9-9-9--|
D|----------------77777777-------------|

e|-------------------------------------------|
B|------r------------------------------------|
G|66666-e-9999-11111111--------111111119999--|
D|xxxxx-s-xxxxxxxxxxxxx--------xxxxxxxxxxxx--| x2
A|44444-t-7777-9-9-9-9-777777779-9-9-9-7777--|
D|---------------------77777777--------------|

e|-----------------------------------------|
B|-----------------------------------------|
G|66666666999911111111-------111111119999--|
D|xxxxxxxxxxxxxxxxxxx--------xxxxxxxxxxxx--| rest of the song
A|4444444477779-9-9-9777777779-9-9-9-7777--|
D|-------------------77777777--------------|

| /  slide up
| \  slide down
| h  hammer-on
| p  pull-off
| ~  vibrato
| +  harmonic
| x  Mute note
===============================================================================



---------------------------------------------------------------------------------------------------------
                    14. Baby, You Wouldn't Last A Minute on The Creek
---------------------------------------------------------------------------------------------------------
                     Just do the Original version with an acoustic Its sounds pretty much the same


-------------------------------------------------------------------------------------------------
                                 15. The Queen Of diamonds (Demo)
-----------------------------------------------------------------

By: Chiodos
Tabbed By: Joe Bieke

 This is a bonus track off of Chiodos newest album “All's Well That End's Well (bonus
This song is a demo and is acoustic so hope you like it, I did the best I could.

     NOTICE:
  x=Mute String(s)

 Intro                    First few strums are some wat silent.
|------------------|    |--------------------------------|
|------------------|    |--------------------------------|
|------------------|    |--------------------------------|
|--7-7-7-7-7-------|    |---7--7-7-7--7-7-7-7-7-7-7-7-7-7|
|--5-5-5-5-5-------|    |---5--5-5-5--5-5-5-5-5-5-5-5-5-5|
|--5-5-5-5-5-------|    |---5--5-5-5--5-5-5-5-5-5-5-5-5-5|
   x x                           /|\
                                / | \
                                  |
                            repeat| that           So get up and
(Listen 2 song 4 Strumming)       | part          leave the room...
|-------------------------|    |-----|     |-----------------|
|-------------------------|    |-----|     |-----------------|
|-------------------------|    |-----|     |-----------------|
|-9-9-9-9-9-9-9-9-9-9-9---|    |--7--|     |--9-9-9-9-7------| x2
|-7-7-7-7-7-7-7-7-7-7-7---|    |--5--|     |--7-7-7-7-5------|
|-7-7-7-7-7-7-7-7-7-7-7---|    |--5--|     |--7-7-7-7-5------|

  (Strum quietly)                              And lose what you love...
|------------------|   |--------------|   |-----------------------|
|------------------|   |--------------|   |-----------------------|
|-8-8-8-8-8-8-8----|   |--------------|   |-7-7-7-7-7-7-7-7-7-----|
|-8-8-8-8-8-8-8----|   |-9-9-9-9-7----|x2 |-7-7-7-7-7-7-7-7-7-----|
|-6-6-6-6-6-6-6----|   |-7-7-7-7-5----|   |-5-5-5-5-5-5-5-5-5-----|
|-6-6-6-6-6-6-6----|   |-7-7-7-7-5----|   |-5-5-5-5-5-5-5-5-5-----|

|----------------------|-----------------------------|
|----------------------|-----------------------------|
|-9-9-9-9-9-9-9-9-9-9--|--10-10-10-10-10-10-10-10-10-|
|-9-9-9-9-9-9-9-9-9-9--|--10-10-10-10-10-10-10-10-10-|
|-7-7-7-7-7-7-7-7-7-7--|--8--8--8--8--8--8--8--8--8--|
|-7-7-7-7-7-7-7-7-7-7--|--8--8--8--8--8--8--8--8--8--|

  I caught the queen of diamonds...
|---------------------|-------------------------------------------|
|---------------------|-------------------------------------------|
|---------------------|-------------------------------------------|
|-9-9-9-9-9-9-9-9-9-9-|-9-9-9-9-9-9-9-9-9-9-9-9-9-9-9-9-9-9-9-9-9-|
|-7-7-7-7-7-7-7-7-7-7-|-7-7-7-7-7-7-7-7-7-7-7-7-7-7-7-7-7-7-7-7-7-|
|-7-7-7-7-7-7-7-7-7-7-|-7-7-7-7-7-7-7-7-7-7-7-7-7-7-7-7-7-7-7-7-7-|
  x x x x x x           x x x x x x

|--------------------------|---------------------|-----------------------|
|-10-10-10-10-10-10-10-10--|---------------------|-----------------------|
|-9--9--9--9--9--9--9--9---|---------------------|-----------------------|
|-7--7--7--7--7--7--7--7---|-9-9-9-9-9-9-9-9-9-9-|-9-9-9-9-9-9-9-9-9-9-9-|
|-7--7--7--7--7--7--7--7---|-7-7-7-7-7-7-7-7-7-7-|-7-7-7-7-7-7-7-7-7-7-7-|
|--------------------------|-7-7-7-7-7-7-7-7-7-7-|-7-7-7-7-7-7-7-7-7-7-7-|
                             x x x x x x x         x x x x x x

|--------------------------|
|-10-10-10-10-10-10-10-10--|
|-9--9--9--9--9--9--9--9---|
|-7--7--7--7--7--7--7--7---|
|-7--7--7--7--7--7--7--7---|
|--------------------------|

 |-------------------------|  |-----------------------------|
 |-------------------------|  |-----------------------------|
 |--7--7-7-7x-7x-7x-7x-7x--|  |-----------------------------|
 |--7--7-7-7x-7x-7x-7x-7x--|  |-8-8-8-8-8-8-8-8-8-8-8-8-8-8-|
 |--7--7-7-7x-7x-7x-7x-7x--|  |-6-6-6-6-6-6-6-6-6-6-6-6-6-6-|
 |--7--7-7-7x-7x-7x-7x-7x--|  |-6-6-6-6-6-6-6-6-6-6-6-6-6-6-|

 Thats it Hope you like it!
Добавлено: 20.09.2013
Другие материалы по этой песне:
  • Аккорды и текст

Страница создана 20.09.2013
http://primanota.ru/chiodos/alls-well-that-ends-well-chords.htm
Привет, Гость.
Предлагаем пройти революционный курс по гитаре.
Подарок от PrimaNota.Ru, забирай!