PrimaNota.ru - самый крупный в мире бесплатный архив песенных текстов, аккордов, табулатур и нот


China Drum - Fall Into Place - текст песни, таба, видео

Регистрация Запомнить меня
Войти через:  Facebook Google Twitter Vk Yandex Mail.ru

China Drum - Fall Into Place - текст песни, таба, видео

Печатать
Просмотров: 118
Уроки эстрадного вокала в Санкт-Петербурге
China Drum 
Goosefair
Fall into place
Standard Tuning
Tabbed by Phil Tweedie


Listen to the song for timings and rhythms,in some parts only chords given
Key 
|%| play previous bar again, used to make reading easier in some places
.notes played stacatto
_____________________________________________________________________________________

Intro
"When I talk, you will talk, when you talk it will fall back into place, yeah"
PM___________________________________________________________________________
e|-----------------|-----------------|-|-|-----------------|-----------------|
B|-----------------|-----------------|-|-|-----------------|-----------------|
G|-----------------|-----------------|%|%|-----------------|-----------------|
D|-----------------|-----------------|%|%|-----------------|-----------------|
A|-2---2-2-2-2-2-2-|-2-2-2-2-2-2-2-2-|-|-|-6-6-6-6-6-6-6-6-|-4-4-4-4-4-4-4-4-|
E|-0---0-0-0-0-0-0-|-0-0-0-0-0-0-0-0-|-|-|-4-4-4-4-4-4-4-4-|-2-2-2-2-2-2-2-2-|

"When I talk, you will talk, when you talk it will fall back into place, yeah"
PM________________________________________
e|-----------------|-----------------|-|-|-----------------|-----------------|
B|-----------------|-----------------|-|-|-----------------|-----------------|
G|-----------------|-----------------|%|%|-----------------|-----------------|
D|-----------------|-----------------|%|%|-6---6---6-6-6---|-4---4---4-4-4-4-|
A|-2-2-2-2-2-2-2-2-|-2-2-2-2-2-2-2-2-|-|-|-6---6---6-6-6---|-4---4---4-4-4-4-|
E|-0-0-0-0-0-0-0-0-|-0-0-0-0-0-0-0-0-|-|-|-4---4---4-4-4---|-2---2---2-2-2-2-|

Lead riff
e|-----------------|-----------------|
B|-----------------|-----------------|
G|-9---9---9-9-9---|-8---------------| x2
D|-9---9---9-9-9---|-9---------------|
A|-----------------|-----------------|
E|-----------------|-----------------|
_____________________________________________________________________________________

Verse 1
"This is something that we've got to suss ourselves"
PM     _________________________________________________________  
e|-----------------|-----------------|-----------------|-----------------|
B|-----------------|-----------------|-----------------|-----------------|
G|-----------------|-----------------|-----------------|-----------------|
D|-2---------------|-----------------|-----------------|---------4.-4.-4.|
A|-2---2-2-2-2-2-2-|-2-2-2-2-2-2-2-2-|-6-6-6-6-6-6-6-6-|-4-4-4-4-4.-4.-4.|
E|-0---0-0-0-0-0-0-|-0-0-0-0-0-0-0-0-|-4-4-4-4-4-4-4-4-|-2-2-2-2-2.-2.-2.|

"If we don't we're gonna stay here on the shelf"
PM_____________________________________________________
e|-----------------|-----------------|-----------------|-----------------|
B|-----------------|-----------------|-----------------|-----------------|
G|-----------------|-----------------|-----------------|-----------------|
D|-----------------|-----------------|-----------------|-4---4---4-4-4-4-|
A|-2-2-2-2-2-2-2-2-|-2-2-2-2-2-2-2-2-|-6-6-6-6-6-6-6-6-|-4---4---4-4-4-4-|
E|-0-0-0-0-0-0-0-0-|-0-0-0-0-0-0-0-0-|-4-4-4-4-4-4-4-4-|-2---2---2-2-2-2-|

"That's where I should be, looking down at you"
e|-----------------|-----------------|-----------------|-----------------|
B|-----------------|-----------------|-----------------|-----------------|
G|-4---4---4-4-4-/-|/9---9-9-9-9-9---|-2---2-2-2-2-2-2-|-2-2-2-2-2-2-2-2-|
D|-4---4---4-4-4-/-|/9---9-9-9-9-9---|-2---2-2-2-2-2-2-|-2-2-2-2-2-2-2-2-|
A|-2---2---2-2-2-/-|/7---7-7-7-7-7---|-0---0-0-0-0-0-0-|-0-0-0-0-0-0-0-0-|
E|-----------------|-----------------|-----------------|-----------------|

"Making promises like politicians do"
e|-----------------|-----------------|-----------------|---------0-------|
B|-----------------|-----------------|-----------------|-0-------0-0-----|
G|-----------------|-----------------|-----------------|-3-3-------3-3---|
D|-6---6---6-6-6-6-|-6-6-6-6-6-6-6-6-|-4-4-4-4-4-4-4-4-|---4-4-------4---|
A|-6---6---6-6-6-6-|-6-6-6-6-6-6-6-6-|-4-4-4-4-4-4-4-4-|-----4-----------|
E|-4---4---4-4-4-4-|-4-4-4-4-4-4-4-4-|-2-2-2-2-2-2-2-2-|-----------------|
_____________________________________________________________________________________

Verse 2
"This is something that we've got to plan outright"
PM     _________________________________________________________  
e|-----------------|-----------------|-----------------|-----------------|
B|-----------------|-----------------|-----------------|-----------------|
G|-----------------|-----------------|-----------------|-----------------|
D|-2---------------|-----------------|-----------------|---------4.-4.-4.|
A|-2---2-2-2-2-2-2-|-2-2-2-2-2-2-2-2-|-6-6-6-6-6-6-6-6-|-4-4-4-4-4.-4.-4.|
E|-0---0-0-0-0-0-0-|-0-0-0-0-0-0-0-0-|-4-4-4-4-4-4-4-4-|-2-2-2-2-2.-2.-2.|

"If we don't we're gonna stay here in the shite"
PM_____________________________________________________
e|-----------------|-----------------|-----------------|-----------------|
B|-----------------|-----------------|-----------------|-----------------|
G|-----------------|-----------------|-----------------|-----------------|
D|-----------------|-----------------|-----------------|-4---4---4-4-4-4-|
A|-2-2-2-2-2-2-2-2-|-2-2-2-2-2-2-2-2-|-6-6-6-6-6-6-6-6-|-4---4---4-4-4-4-|
E|-0-0-0-0-0-0-0-0-|-0-0-0-0-0-0-0-0-|-4-4-4-4-4-4-4-4-|-2---2---2-2-2-2-|

"That's where I should be, looking up to you"
e|-----------------|-----------------|-----------------|-----------------|
B|-----------------|-----------------|-----------------|-----------------|
G|-4---4---4-4-4-/-|/9---9-9-9-9-9---|-2---2-2-2-2-2-2-|-2-2-2-2-2-2-2-2-|
D|-4---4---4-4-4-/-|/9---9-9-9-9-9---|-2---2-2-2-2-2-2-|-2-2-2-2-2-2-2-2-|
A|-2---2---2-2-2-/-|/7---7-7-7-7-7---|-0---0-0-0-0-0-0-|-0-0-0-0-0-0-0-0-|
E|-----------------|-----------------|-----------------|-----------------|

"Making promises like politicians do"
e|-----------------|-----------------|-----------------|---------0-------|
B|-----------------|-----------------|-----------------|-0-------0-0-----|
G|-----------------|-----------------|-----------------|-3-3-------3-3---|
D|-6---6---6-6-6-6-|-6-6-6-6-6-6-6-6-|-4-4-4-4-4-4-4-4-|---4-4-------4---|
A|-6---6---6-6-6-6-|-6-6-6-6-6-6-6-6-|-4-4-4-4-4-4-4-4-|-----4-----------|
E|-4---4---4-4-4-4-|-4-4-4-4-4-4-4-4-|-2-2-2-2-2-2-2-2-|-----------------|
_____________________________________________________________________________________

Chorus 1 (alternative version is to play lead riff followed by G# and F# chords)
"When I talk,       it will  fall back into place, yeah"
e|-----------------|-|-|-|-----------------|-------------0---|
B|-----------------|-|-|-|-----------------|-------------0---|
G|-9---9---9-9-9---|%|%|%|-----------------|-------------3---|
D|-9---9---9-9-9---|%|%|%|-6---6---6-6-6---|-4---4---4-4-4---|
A|-7---7---7-7-7---|-|-|-|-6---6---6-6-6---|-4---4---4-4-4---|
E|-----------------|-|-|-|-4---4---4-4-4---|-2---2---2-2-2---|

"When I talk,      it will  fall back into place, yeah"
e|-----------------|-|-|-|-----------------|-------------0---|
B|-----------------|-|-|-|-----------------|-------------0---|
G|-9---9---9-9-9---|%|%|%|-----------------|-------------3---|
D|-9---9---9-9-9---|%|%|%|-6---6---6-6-6---|-4---4---4-4-4---|
A|-7---7---7-7-7---|-|-|-|-6---6---6-6-6---|-4---4---4-4-4---|
E|-----------------|-|-|-|-4---4---4-4-4---|-2---2---2-2-2---|

Lead riff
e|-----------------|-----------------|
B|-----------------|-----------------|
G|-9---9---9-9-9---|-8---------------| x2
D|-9---9---9-9-9---|-9---------------|
A|-----------------|-----------------|
E|-----------------|-----------------|
_____________________________________________________________________________________

Bridge (listen for the rhythm)
"You are like, having something in my eyes"
Clean
e|-0---------------|-0---------------|-0---------------|-0---------------|
B|-0---------------|-0---------------|-4---------------|-2---------------|
G|-1---------------|-1---------------|-5---------------|-3---------------|
D|-2---------------|-2---------------|-6---------------|-4---------------|
A|-2---------------|-2---------------|-6---------------|-4---------------|
E|-0---------------|-0---------------|-----------------|-----------------|

"Burning through the lens that money just can't buy "
e|-0---------------|-0---------------|-0---------------|-0---------------|
B|-0---------------|-0---------------|-4---------------|-2---------------|
G|-1---------------|-1---------------|-5---------------|-3---------------|
D|-2---------------|-2---------------|-6---------------|-4---------------|
A|-2---------------|-2---------------|-6---------------|-4---------------|
E|-0---------------|-0---------------|-----------------|-----------------|
 
"I'm rushing to the sink to try and wash it out"
Dist
PM_______________________________________________________________________
e|-----------------|-----------------|-----------------|-----------------|
B|-----------------|-----------------|-----------------|-----------------|
G|-----------------|-----------------|-----------------|-----------------|
D|-----------------|-----------------|-----------------|-----------------|
A|-2-2-2-2-2-2-2-2-|-2-2-2-2-2-2-2-2-|-6-6-6-6-6-6-6-6-|-4-4-4-4-4-4-4-4-|
E|-0-0-0-0-0-0-0-0-|-0-0-0-0-0-0-0-0-|-4-4-4-4-4-4-4-4-|-2-2-2-2-2-2-2-2-|

"But you're already there just falling all about"
PM____________________________________Grad release PM 
e|-----------------|-----------------|-----------------|-----------------|
B|-----------------|-----------------|-----------------|-----------------|
G|-----------------|-----------------|-----------------|---------3-3-3-3-|
D|-----------------|-----------------|---------6-6-6-6-|-4-4-4-4-4-4-4-4-|
A|-2-2-2-2-2-2-2-2-|-2-2-2-2-2-2-2-2-|-6-6-6-6-6-6-6-6-|-4-4-4-4-4-4-4-4-|
E|-0-0-0-0-0-0-0-0-|-0-0-0-0-0-0-0-0-|-4-4-4-4-4-4-4-4-|-2-2-2-2-2-2-2-2-|
**(another lead part dubbed over these PM parts I can't figure out)**
_____________________________________________________________________________________

Solo of sorts
e|-----------------|-----------------|-0---0---0-0-0---|-0---0---0-0-0---|
B|-----------------|-----------------|-9---9---9-9-9---|-7---7---7-7-7---|
G|-9---9---9-9-9---|-8---8---8-8-8---|-8---8---8-8-8---|-8---8---8-8-8---| X2
D|-9---9---9-9-9---|-9---9---9-9-9---|-9---9---9-9-9---|-9---9---9-9-9---|
A|-----------------|-----------------|-----------------|-----------------|
E|-----------------|-----------------|-----------------|-----------------|

e|-----------------|-----------------|
B|-----------------|-----------------|
G|-9---9---9-9-9---|-8---------------| x2
D|-9---9---9-9-9---|-9---------------|
A|-----------------|-----------------|
E|-----------------|-----------------|
_____________________________________________________________________________________

Verse 3
"That's where I should be, looking up to you"
e|-----------------|-----------------|-----------------|-----------------|
B|-----------------|-----------------|-----------------|-----------------|
G|-4---4---4-4-4-/-|/9---9-9-9-9-9---|-2---2-2-2-2-2-2-|-2-2-2-2-2-2-2-2-|
D|-4---4---4-4-4-/-|/9---9-9-9-9-9---|-2---2-2-2-2-2-2-|-2-2-2-2-2-2-2-2-|
A|-2---2---2-2-2-/-|/7---7-7-7-7-7---|-0---0-0-0-0-0-0-|-0-0-0-0-0-0-0-0-|
E|-----------------|-----------------|-----------------|-----------------|

"Making promises like politicians do"
e|-----------------|-----------------|-----------------|---------0-------|
B|-----------------|-----------------|-----------------|-0-------0-0-----|
G|-----------------|-----------------|-----------------|-3-3-------3-3---|
D|-6---6---6-6-6-6-|-6-6-6-6-6-6-6-6-|-4-4-4-4-4-4-4-4-|---4-4-------4---|
A|-6---6---6-6-6-6-|-6-6-6-6-6-6-6-6-|-4-4-4-4-4-4-4-4-|-----4-----------|
E|-4---4---4-4-4-4-|-4-4-4-4-4-4-4-4-|-2-2-2-2-2-2-2-2-|-----------------|

"That's where I should be, looking up to you"
e|-----------------|-----------------|-----------------|-----------------|
B|-----------------|-----------------|-----------------|-----------------|
G|-4---4---4-4-4-/-|/9---9-9-9-9-9---|-2---2-2-2-2-2-2-|-2-2-2-2-2-2-2-2-|
D|-4---4---4-4-4-/-|/9---9-9-9-9-9---|-2---2-2-2-2-2-2-|-2-2-2-2-2-2-2-2-|
A|-2---2---2-2-2-/-|/7---7-7-7-7-7---|-0---0-0-0-0-0-0-|-0-0-0-0-0-0-0-0-|
E|-----------------|-----------------|-----------------|-----------------|

"Making promises like politicians do"
e|-----------------|-----------------|-----------------|---------0-------|
B|-----------------|-----------------|-----------------|-0-------0-0-----|
G|-----------------|-----------------|-----------------|-3-3-------3-3---|
D|-6---6---6-6-6-6-|-6-6-6-6-6-6-6-6-|-4-4-4-4-4-4-4-4-|---4-4-------4---|
A|-6---6---6-6-6-6-|-6-6-6-6-6-6-6-6-|-4-4-4-4-4-4-4-4-|-----4-----------|
E|-4---4---4-4-4-4-|-4-4-4-4-4-4-4-4-|-2-2-2-2-2-2-2-2-|-----------------|
_____________________________________________________________________________________

Outro Chorus (theres a lead part over this I can't figure)
"When I talk,       it will  fall back into place, yeah"
e|-----------------|-|-|-|-----------------|-------------0---|
B|-----------------|-|-|-|-----------------|-------------0---|
G|-9---9---9-9-9---|%|%|%|-----------------|-------------3---|
D|-9---9---9-9-9---|%|%|%|-6---6---6-6-6---|-4---4---4-4-4---|
A|-7---7---7-7-7---|-|-|-|-6---6---6-6-6---|-4---4---4-4-4---|
E|-----------------|-|-|-|-4---4---4-4-4---|-2---2---2-2-2---|

"When I talk,      it will  fall back into place, yeah"
e|-----------------|-|-|-|-----------------|-------------0---|
B|-----------------|-|-|-|-----------------|-------------0---|
G|-9---9---9-9-9---|%|%|%|-----------------|-------------3---|
D|-9---9---9-9-9---|%|%|%|-6---6---6-6-6---|-4---4---4-4-4---|
A|-7---7---7-7-7---|-|-|-|-6---6---6-6-6---|-4---4---4-4-4---|
E|-----------------|-|-|-|-4---4---4-4-4---|-2---2---2-2-2---|

e|-----------------|-----------------|-----------------|-----------------|
B|-----------------|-----------------|-----------------|-----------------|
G|-9---9---9-9-9---|-----------------|-9---9---9-9-9---|-----------------| x2
D|-9---9---9-9-9---|-6---6-6-4---4-4-|-9---9---9-9-9---|-6---6-6-4---4-4-|
A|-7---7---7-7-7---|-6---6-6-4---4-4-|-7---7---7-7-7---|-6---6-6-4---4-4-|
E|-----------------|-4---4-4-2---2-2-|-----------------|-4---4-4-2---2-2-|

e|-----------------|
B|-----------------|
G|-1---------------|
D|-2---------------|
A|-2---------------|
E|-0---------------|
________________________________________________________________




Enjoy
Please rate and leave constructive comments/feedback
paddyonthetoadstool@hotmail.com June 2015
Добавлено: 31.10.2015
Другие материалы по этой песне:
  • Аккорды и текст

Страница создана 26.04.2012
http://primanota.ru/china-drum/fall-into-place-chords.htm
Привет, Гость.
Предлагаем пройти революционный курс по гитаре.
Подарок от PrimaNota.Ru, забирай!