PrimaNota.ru - самый крупный в мире бесплатный архив песенных текстов, аккордов, табулатур и нот


China Drum - Cloud 9 - текст песни, таба, видео

Регистрация Запомнить меня
Войти через:  Facebook Google Twitter Vk Yandex Mail.ru

China Drum - Cloud 9 - текст песни, таба, видео

Печатать
Просмотров: 120
Уроки эстрадного вокала в Санкт-Петербурге
China Drum
Cloud 9
Goosefair
Standard Tuning
Tabbed by Phil Tweedie

_____________________________________________________________________________________

Listen to the song for timings and rhythms,in some parts only chords given

Intro
Guitar 1
e|-----------------|
B|------0--h3/-10p-|
G|-----------------|
D|-----------------|
A|-----------------|
E|-----------------|
                   |
Guitar 2           |
e|---------17------|
B|-----------------|
G|-----------------|
D|-----------------|
A|-----------------|
E|-----------------|

Guitar 1 hammer/pull/slide riff
e|-----------------|-----------------|-----------------|-----------------|
B|-0h3p0---h3/-10--|-0h3p0---h3/-10--|-0h3p0---h3/-10--|-0h3p0---h3/-10--|
G|-----------------|-----------------|-----------------|-----------------|
D|-----------------|-----------------|-----------------|-----------------|
A|-----------------|-----------------|-----------------|-----------------|
E|-----------------|-----------------|-----------------|-----------------|
                                                                         | x 2
Guitar 2  High notes heard in intro                                      |
e|---17-----17-----|---17-----17-----|---17-----17-----|---17-----17-----|
B|-----------------|-----------------|-----------------|-----------------|
G|-----------------|-----------------|-----------------|-----------------|
D|-----------------|-----------------|-----------------|-----------------|
A|-----------------|-----------------|-----------------|-----------------|
E|-----------------|-----------------|-----------------|-----------------|

Guitar 1 hammer/pull/slide riff
e|-----------------|-----------------|-----------------|-----------------|
B|-0h3p0---h3/-10--|-0h3p0---h3/-10--|-0---h10--p0-h10-|-p0--h10~--------|
G|-----------------|-----------------|-----------------|-----------------|
D|-----------------|-----------------|-----------------|-----------------|
A|-----------------|-----------------|-----------------|-----------------|
E|-----------------|-----------------|-----------------|-----------------|
                                                                         | 
Guitar 2  High notes heard in intro                                      |
e|---17-----17-----|---17-----17-----|---17-----17-----|---17-----17-----|
B|-----------------|-----------------|-----------------|-----------------|
G|-----------------|-----------------|-----------------|-----------------|
D|-----------------|-----------------|-----------------|-----------------|
A|-----------------|-----------------|-----------------|-----------------|
E|-----------------|-----------------|-----------------|-----------------|

Guitar 1
e|-----------------|-----------------|-----------------|-----------------|
B|-----------------|-----------------|-----------------|-----------------|
G|-4-----x-2---222-|-4-4-4---2---222-|-4---4---2---222-|-4-4-4---2---222-|
D|-4-----x-2---222-|-4-4-4---2---222-|-4---4---2---222-|-4-4-4---2---222-|
A|-2-----x-0---000-|-2-2-2---0---000-|-2---2---0---000-|-2-2-2---0---000-|
E|-----------------|-----------------|-----------------|-----------------|
                                                                         |
Guitar 2                                                                 |
e|-----------------|-----------------|-----------------|-----------------|
B|-----------------|-----------------|-----------------|-----------------|
G|-9tr slow b--(trill pick and slow grad bend until next note tabbed)----|
D|-----------------|-----------------|-----------------|-----------------|
A|-----------------|-----------------|-----------------|-----------------|
E|-----------------|-----------------|-----------------|-----------------|

Guitar 1
e|-----------------|-----------------|-----------------|-----------------|
B|-----------------|-----------------|-----------------|-----------------|
G|-4-----x-2---222-|-4-4-4---2---222-|-4---4---2---222-|-4---------------|
D|-4-----x-2---222-|-4-4-4---2---222-|-4---4---2---222-|-4---------------|
A|-2-----x-0---000-|-2-2-2---0---000-|-2---2---0---000-|-2---------------|
E|-----------------|-----------------|-----------------|-----------------|
                                                                         |
Guitar 2                                                                 |
e|-----------------|-----------------|-----------------|-----------------|
B|-----------------|-----------------|-----------------|-----------------|
G|-(as above)------|-----------------|------------9--6-|-4---------------|
D|-----------------|-----------------|-----------------|-----------------|
A|-----------------|-----------------|-----------------|-----------------|
E|-----------------|-----------------|-----------------|-----------------|
_____________________________________________________________________________________

Verse 1 (no rhythm given here)
"If there's anything I can do just tell me I'll be there"
"I need someone to help me, start breathing in clean air"
e|-----------------|-----------------|-----------------|-----------------|
B|-----------------|-----------------|-----------------|-----------------|
G|-4-------2-------|-4-------2-------|-4-------2-------|-4-------2-------| x2
D|-4-------2-------|-4-------2-------|-4-------2-------|-4-------2-------|
A|-2-------0-------|-2-------0-------|-2-------0-------|-2-------0-------|
E|-----------------|-----------------|-----------------|-----------------|

"Sick of feeling cloudy and not having any clues"
"If you want to tell me, if there's something I can do"
"Sick of feeling lonely, and not having any clues"
"If you want to tell me, if there's something I can"
e|-----------------|-----------------|-----------------|-----------------|
B|-----------------|-----------------|-----------------|-----------------|
G|-7---------------|-----------------|-7---------------|-----------------| x2
D|-7------7--------|-4-------5-------|-7-------7-------|-4-------5-------|
A|-5------7--------|-4-------5-------|-5-------7-------|-4-------5-------|
E|--------5--------|-2-------3-------|---------5-------|-2-------3-------|

"dooooooooo"
Guitar 1
e|-----------------|-----------------|-----------------|-----------------|
B|-----------------|-----------------|-----------------|-----------------|
G|-4-------2-------|-4-------2-------|-4-------2-------|-4-------2-------|
D|-4-------2-------|-4-------2-------|-4-------2-------|-4-------2-------|
A|-2-------0-------|-2-------0-------|-2-------0-------|-2-------0-------|
E|-----------------|-----------------|-----------------|-----------------|
                                                                         |
Guitar 2                                                                 |
e|-----------------|-----------------|-----------------|-----------------|
B|-----------------|-----------------|-----------------|-----------------|
G|-9tr slow b------|-----------------|-----------------|-----------------|
D|-----------------|-----------------|-----------------|-----------------|
A|-----------------|-----------------|-----------------|-----------------|
E|-----------------|-----------------|-----------------|-----------------|

"Do,owwooooowoooooo"
Guitar 1
e|-----------------|-----------------|-----------------|-----------------|
B|-----------------|-----------------|-----------------|-----------------|
G|-4-------2-------|-4-------2-------|-4-------2-------|-4-------2-------|
D|-4-------2-------|-4-------2-------|-4-------2-------|-4-------2-------|
A|-2-------0-------|-2-------0-------|-2-------0-------|-2-------0-------|
E|-----------------|-----------------|-----------------|-----------------|
                                                                         |
Guitar 2                                                                 |
e|-----------------|-----------------|-----------------|-----------------|
B|-----------------|-----------------|-----------------|-----------------|
G|-9tr slow b------|-----------------|-----------------|---------------\-|
D|-----------------|-----------------|-----------------|-----------------|
A|-----------------|-----------------|-----------------|-----------------|
E|-----------------|-----------------|-----------------|-----------------|
_____________________________________________________________________________________

Verse 2
"I think you're fuckin' crazy just staring into space"
e|-----------------|-----------------|-----------------|-----------------|
B|-----------------|-----------------|-----------------|-----------------|
G|-4-------2-------|-4-------2-------|-4-------2-------|-4-------2-------|
D|-4-------2-------|-4-------2-------|-4-------2-------|-4-------2-------|
A|-2-------0-------|-2-------0-------|-2-------0-------|-2-------0-------|
E|-----------------|-----------------|-----------------|-----------------|

"But that's the price you've got to pay for losing the big race"
e|-----------------|-----------------|-----------------|-----------------|
B|-----------------|-----------------|-----------------|-----------------|
G|-4-------2-------|-4-------2-------|-4---------------|-----------------|
D|-4-------2-------|-4-------2-------|-4---------------|-----------------|
A|-2-------0-------|-2-------0-------|-2---------------|-----------------|
E|-----------------|-----------------|-----------------|-----------------|

"Didn't need to line up, but you took your starting blocks"
"Couldn't stand there quiet, when your mouth is spitting rocks"
"Didn't need to line up, but you took your starting blocks"
"Couldn't stand there quiet, when your mouth is spitting rocks"
e|-----------------|-----------------|-----------------|-----------------|
B|-----------------|-----------------|-----------------|-----------------|
G|-7---------------|-----------------|-7---------------|-----------------| x2
D|-7------7--------|-4-------5-------|-7-------7-------|-4-------5-------|
A|-5------7--------|-4-------5-------|-5-------7-------|-4-------5-------|
E|--------5--------|-2-------3-------|---------5-------|-2-------3-------|
_____________________________________________________________________________________

Solo
Guitar 1
e|-----------------|-----------------|-----------------|-----------------|
B|-----------------|-----------------|-----------------|-----3-----------|
G|-4---------------|-----------------|-----------------|---4-------------|
D|-4---------------|-----------------|-----------------|-4---------------|
A|-2---------------|-----------------|-----------------|-----------------|
E|-----------------|-----------------|-----------------|-----------------|
                                                                         |
Guitar 2 (this is played throughout solo and only tabbed for 1st 4 bars) |
e|---17-----17-----|---17-----17-----|---17-----17-----|---17-----17-----|
B|-----------------|-----------------|-----------------|-----------------|
G|-----------------|-----------------|-----------------|-----------------|
D|-----------------|-----------------|-----------------|-----------------|
A|-----------------|-----------------|-----------------|-----------------|
E|-----------------|-----------------|-----------------|-----------------|

e|-----------------|-----------------|-2---------------|-----------------|
B|-----------------|-----------------|------3----------|-----------------|
G|-----------------|-----------------|-----------4-----|-----------------|
D|-----------------|-----------------|-----------------|-----------------|
A|-----------------|-----------------|-----------------|-----------------|
E|-----------------|-----------------|-----------------|-----------------|

Guitar 1
e|-----------------|-----------------|-----------------|-----------------|
B|-18br--18br--18br|--18b----(18b)r--|--18br----18br\--|-12--------------|
G|-----------------|-----------------|-----------------|-----------------|
D|-----------------|-----------------|-----------------|-----------------|
A|-----------------|-----------------|-----------------|-----------------|
E|-----------------|-----------------|-----------------|-----------------|
                                                                         |
Guitar 3                                                                 |
e|-----------------|-----------------|-----------------|-----------------|
B|-----------------|-----------------|-----------------|-----------------|
G|-4-------2-------|-4-------2-------|-4-------2-------|-4-------2-------|
D|-4-------2-------|-4-------2-------|-4-------2-------|-4-------2-------|
A|-2-------0-------|-2-------0-------|-2-------0-------|-2-------0-------|
E|-----------------|-----------------|-----------------|-----------------|

Guitar 1
e|-----------------|-----------------|-----------------|-----------------|
B|-18tr\---\---\---|-\---\---\---\---|------17*--------|-----------------|
G|-----------------|-----------------|-18--------16----|-----------------|
D|-----------------|-----------------|-----------------|-----------------|
A|-----------------|-----------------|-----------------|-----------------|
E|-----------------|-----------------|-----------------|-----------------|
                                                                         |
Guitar 3                                                                 |
e|-----------------|-----------------|-----------------|-----------------|
B|-----------------|-----------------|-----------------|-----------------|
G|-4-------2-------|-4-------2-------|-4-------2-------|-4-------2-------|
D|-4-------2-------|-4-------2-------|-4-------2-------|-4-------2-------|
A|-2-------0-------|-2-------0-------|-2-------0-------|-2-------0-------|
E|-----------------|-----------------|-----------------|-----------------|

Guitar 1                some harmonics etc around this part
e|-----------------|-----------------|-----------------|-----------------|
B|-----------------|-----------------|-----------------|-----------------|
G|-4/7.--2-4---2-4-|-6-7.--2-4---2-4-|-/6-7.--2-4--2-4-|-/6-7.--2-4------|
D|-----------------|-----------------|-----------------|-----------------|
A|-----------------|-----------------|-----------------|-----------------|
E|-----------------|-----------------|-----------------|-----------------|
                                                                         |
Guitar 3                                                                 |
e|-----------------|-----------------|-----------------|-----------------|
B|-----------------|-----------------|-----------------|-----------------|
G|-7---2---4---444-|-7---2---4---444-|-7---2---4---444-|-7---2---4---444-|
D|-7---2---4---444-|-7---2---4---444-|-7---2---4---444-|-7---2---4---444-|
A|-5---0---2---222-|-5---0---2---222-|-5---0---2---222-|-5---0---2---222-|
E|-----------------|-----------------|-----------------|-----------------|
_____________________________________________________________________________________

Outro 
"And I'll help you sort it out, the very best I can"
"Throw out all your nightmares, put you on cloud 9"
e|-----------------|-----------------|-----------------|-----------------|
B|-----------------|-----------------|-----------------|-----------------|
G|-7------7--------|-4---------------|-7-------7-------|-4---------------|
D|-7------5--------|-4---------------|-7-------5-------|-4---------------|
A|-5------5--------|-2---------------|-5-------5-------|-2---------------|
E|-----------------|-----------------|-----------------|-----------------|

"The only thing you have to do is make sure you got a mind, a mind"
e|-----------------|-----------------|-----------2-----|-----------------|
B|-----------------|-----------------|-------------2---|-----------------|
G|-6---------------|-4---------------|-3-------------3-|-----------------|
D|-7---------------|-5---------------|-4---------------|-4-4-4-4-4-4-4-4-|
A|-7---------------|-5---------------|-4---------------|-4-4-4-4-4-4-4-4-|
E|-5---------------|-3---------------|-2---------------|-2-2-2-2-2-2-2-2-|

"And I'll help you sort it out, the very best I can"
"Throw out all your nightmares, put you on cloud 9"
e|-----------------|-----------------|-----------------|-----------------|
B|-----------------|-----------------|-----------------|-----------------|
G|-7------7--------|-4---------------|-7-------7-------|-4---------------|
D|-7------5--------|-4---------------|-7-------5-------|-4---------------|
A|-5------5--------|-2---------------|-5-------5-------|-2---------------|
E|-----------------|-----------------|-----------------|-----------------|

"The only thing you have to do is make sure you got a mind, a mind"
e|-----------------|-----------------|-----------2-----|-----------------|
B|-----------------|-----------------|-------------2---|-----------------|
G|-6---------------|-4---------------|-3-------------3-|-----------------|
D|-7---------------|-5---------------|-4---------------|-4-4-4-4-4-4-4-4-|
A|-7---------------|-5---------------|-4---------------|-4-4-4-4-4-4-4-4-|
E|-5---------------|-3---------------|-2---------------|-2-2-2-2-2-2-2-2-|

"And I'll help you sort it out, the very best I can"
"Throw out all your nightmares, put you on cloud 9"
e|-----------------|-----------------|-----------------|-----------------|
B|-----------------|-----------------|-----------------|-----------------|
G|-7------7--------|-4---------------|-7-------7-------|-4---------------|
D|-7------5--------|-4---------------|-7-------5-------|-4---------------|
A|-5------5--------|-2---------------|-5-------5-------|-2---------------|
E|-----------------|-----------------|-----------------|-----------------|

"The only thing you have to do is make sure you got a mind, a mind"
e|-----------------|-----------------|-----------2-----|-----------------|
B|-----------------|-----------------|-------------2---|-----------------|
G|-6---------------|-4---------------|-3-------------3-|-----------------|
D|-7---------------|-5---------------|-4---------------|-4-4-4-4-4-4-4-4-|
A|-7---------------|-5---------------|-4---------------|-4-4-4-4-4-4-4-4-|
E|-5---------------|-3---------------|-2---------------|-2-2-2-2-2-2-2-2-|

"And I'll help you sort it out, the very best I can"
"Throw out all your nightmares, put you on cloud 9"
e|-----------------|-----------------|-----------------|-----------------|
B|-----------------|-----------------|-----------------|-----------------|
G|-7------7--------|-4---------------|-7-------7-------|-4---------------|
D|-7------5--------|-4---------------|-7-------5-------|-4---------------|
A|-5------5--------|-2---------------|-5-------5-------|-2---------------|
E|-----------------|-----------------|-----------------|-----------------|

"The only thing you have to do is make sure you got a mind, a mind"
e|-----------------|-----------------|-----------2-----|-----------------|
B|-----------------|-----------------|-------------2---|-----------------|
G|-6---------------|-4---------------|-3-------------3-|-----------------|
D|-7---------------|-5---------------|-4---------------|-4-5-4-5-4-5-4-5-|
A|-7---------------|-5---------------|-4---------------|-4-5-4-5-4-5-4-5-|
E|-5---------------|-3---------------|-2---------------|-2-3-2-3-2-3-2-3-|

e|-----------------|
B|-----------------|
G|-4---------------|
D|-4---------------|
A|-2---------------|
E|-----------------|
_____________________________________________________________________________________




Enjoy
Please rate and leave constructive comments/feedback
paddyonthetoadstool@hotmail.com April 2015
Добавлено: 31.10.2015
Другие материалы по этой песне:
  • Аккорды и текст

Страница создана 01.03.2012
http://primanota.ru/china-drum/cloud-9-chords.htm
Привет, Гость.
Предлагаем пройти революционный курс по гитаре.
Подарок от PrimaNota.Ru, забирай!