PrimaNota.ru - самый крупный в мире бесплатный архив песенных текстов, аккордов, табулатур и нот


China Drum - Another Toy - текст песни, таба, видео

Регистрация Запомнить меня
Войти через:  Facebook Google Twitter Vk Yandex Mail.ru

China Drum - Another Toy - текст песни, таба, видео

Печатать
Просмотров: 179
Уроки эстрадного вокала в Санкт-Петербурге
China Drum
Self Made Maniac
Another toy

Listen to the song for exact timings and rhythms etc. 
There is loads of layering on China Drum records at times and this is hard to pick out
everything

_________________________________________________________________________________

Intro (Clean, let ring with reverb)
e|-----------------|-----------------|-----------------|-----------------|
B|-------------3---|-------------3---|-------------3---|-------------3---|
G|---------------5-|---------------5-|---------------5-|---------------5-|
D|-----------------|-----------------|-----------------|-----------------|
A|-----------------|-----------------|-----------------|-----------------|
E|-----------------|-----------------|-----------------|-----------------|

e|-----------------|-----------------|-----------------|-----------------|
B|-------------3---|-------------3---|-------------3---|-------------3---|
G|---------------5-|---------------5-|---------------5-|---------------5-|
D|-----------------|-----------------|-----------------|-----------------|
A|-3---------------|-----------------|-----------------|-----------------|
E|-----------------|-4---------------|-3---------------|-4---------------|

                                                        Dist on here    *
e|-----------------|-----------------|-----------------|-----------------|
B|-------------3---|-------------3---|-------------3---|-------------3---|
G|---------------5-|---------------5-|---------------5-|---------------5-|
D|-----------------|-----------------|-----------------|----------------x|
A|-3---------------|-----------------|-----------------|----------------x|
E|-----------------|-4---------------|-3---------------|-4--------------x|

Dist both
Guitar 1
e|--------------------------|--------------------------|
B|--------------------------|--------------------------|
G|-5---5---5-5-5------------|---------------8-8-8-8-8-8|
D|-5---5---5-5-5-6-6-6--6-6-|-5---5---5-5-5-8-8-8-8-8-8|
A|-3---3---3-3-3-6-6-6--6-6-|-5---5---5-5-5-6-6-6-6-6-6|
E|---------------4-4-4--4-4-|-3---3---3-3-3------------|
                                                       |
Guitar 2                                               |
e|--------------------------|--------------------------|
B|--------------------------|--------------------------|
G|-5---5---5-5-5------------|--------------------------|
D|-5---5---5-5-5-1-1-1-0----|-5---5---5-5-5-1-1-1-0----|
A|-3---3---3-3-3---------3-1|-5---5---5-5-5---------3-1|
E|--------------------------|-3---3---3-3-3------------|

Guitar 1
e|--------------------------|--------------------------|
B|--------------------------|--------------------------|
G|-5---5---5-5-5------------|---------------8-8-8-8----|
D|-5---5---5-5-5-6-6-6--6-6-|-5---5---5-5-5-8-8-8-8----|
A|-3---3---3-3-3-6-6-6--6-6-|-5---5---5-5-5-6-6-6-6----|
E|---------------4-4-4--4-4-|-3---3---3-3-3------------|
                                                       |
Guitar 2                                               |
e|--------------------------|--------------------------|
B|--------------------------|--------------------------|
G|-5---5---5-5-5------------|--------------------------|
D|-5---5---5-5-5-1-1-1-0----|-5---5---5-5-5-1-1-1-1----|
A|-3---3---3-3-3---------3-1|-5---5---5-5-5------------|
E|--------------------------|-3---3---3-3-3------------|

Guitar 1
e|--------------------------|--------------------------|
B|--------------------------|--------------------------|
G|-5---5---5-5-5------------|---------------8-8-8-8-8-8|
D|-5---5---5-5-5-6-6-6--6-6-|-5---5---5-5-5-8-8-8-8-8-8|
A|-3---3---3-3-3-6-6-6--6-6-|-5---5---5-5-5-6-6-6-6-6-6|
E|---------------4-4-4--4-4-|-3---3---3-3-3------------|
                                                       | x2
Guitar 2                                               |
e|--------------------------|--------------------------|
B|--------------------------|--------------------------|
G|-5---5---5-5-5------------|--------------------------|
D|-5---5---5-5-5-1-1-1-0----|-5---5---5-5-5-1-1-1-0----|
A|-3---3---3-3-3---------3-1|-5---5---5-5-5---------3-1|
E|--------------------------|-3---3---3-3-3------------|
_________________________________________________________________________________

Chorus 1
Guitar 1
e|-----------------|-----------------|-----------------|-----------------|
B|-----------------|-----------------|-----------------|-----------------|
G|-5---------------|-----------------|-----------------|-----------------|
D|-5---------------|-----------------|-----------------|-----------------|
A|-3---------------|-----------------|-----------------|-----------------|
E|-----------------|-----------------|-----------------|-----------------|
                                                                         |
Guitar 2 Clean                                                           |
e|-----------------|-----------------|-----------------|-----------------|
B|-------------3---|-------------3---|-------------3---|-------------3---|
G|---------------5-|---------------5-|---------------5-|---------------5-|
D|-----------------|-----------------|-----------------|-----------------|
A|-3---------------|-----------------|-----------------|-----------------|
E|-----------------|-4---------------|-3---------------|-4---------------|

e|-----------------|-----------------|-----------------|-----------------|
B|-------------3---|-------------3---|-------------3---|-------------3---|
G|---------------5-|---------------5-|---------------5-|---------------5-|
D|-----------------|-----------------|-----------------|-----------------|
A|-3---------------|-----------------|-----------------|-----------------|
E|-----------------|-4---------------|-3---------------|-4---------------|

"When I'm gone and you are broke, You will find another toy"
"When I'm broke and you have gone, You will find another toy"
e|-----------------|-----------------|-----------------|-----------------|
B|-------------3---|-------------3---|-------------3---|-------------3---|
G|---------------5-|---------------5-|---------------5-|---------------5-| x4
D|-----------------|-----------------|-----------------|-----------------|
A|-3---------------|-----------------|-----------------|-----------------|
E|-----------------|-4---------------|-3---------------|-4---------------|
_________________________________________________________________________________

Verse 1

"The wind was cutting in so well, I covered up my ears"
e|---------1-------|---------1-------|---------3-------|---------3-------|
B|---------1-------|---------1-------|---------3-------|---------3-------|
G|---------2-------|---------2-------|---------4-------|---------4-------|
D|-3-3-3-3-3-3-3-3-|-3-3-3-3-3-3-3-3-|-5-5-5-5-5-5-5-5-|-5-5-5-5-5-5-5-5-|
A|-3-3-3-3-3-3-3-3-|-3-3-3-3-3-3-3-3-|-5-5-5-5-5-5-5-5-|-5-5-5-5-5-5-5-5-|
E|-1-1-1-1-1-1-1-1-|-1-1-1-1-1-1-1-1-|-3-3-3-3-3-3-3-3-|-3-3-3-3-3-3-3-3-|

"The rain was going through me like a knife"
e|---------1-------|---------1-------|---------3-------|-----------------|
B|---------1-------|---------1-------|---------3-------|-----------------|
G|---------2-------|---------2-------|---------4-------|-----------------|
D|-3-3-3-3-3-3-3-3-|-3-3-3-3-3-3-3-3-|-5-5-5-5-5-5-5-5-|-5-5-1/3\1p0-----|
A|-3-3-3-3-3-3-3-3-|-3-3-3-3-3-3-3-3-|-5-5-5-5-5-5-5-5-|-5-5--------h3\1-|
E|-1-1-1-1-1-1-1-1-|-1-1-1-1-1-1-1-1-|-3-3-3-3-3-3-3-3-|-3-3-------------|

"It was taking every inch of warmth I had in me"
e|-----------------|-----------------|-----------------|-----------------|
B|-----------------|-----------------|-----------------|-----------------|
G|-3---3---3-3-3-3-|-3-3-3-3-3-3-3-3-|-----------------|-----------------|
D|-3---3---3-3-3-3-|-3-3-3-3-3-3-3-3-|-3---3---3-3-3-3-|-3-3-3-3-3-3-3-3-|
A|-1---1---1-1-1-1-|-1-1-1-1-1-1-1-1-|-3---3---3-3-3-3-|-3-3-3-3-3-3-3-3-|
E|-----------------|-----------------|-1---1---1-1-1-1-|-1-1-1-1-1-1-1-1-|

"I was shaking like I'd never in my life"
e|-----------------|-----------------|-----------------|-----------------|
B|-----------------|-----------------|-----------------|-----------------|
G|-8---8---8-8-8-8-|-8-8-8-8-8-8-8-8-|-7---7---7---7---|-7-7-7-7-7---7---|
D|-8---8---8-8-8-8-|-8-8-8-8-8-8-8-8-|-7---7---7---7---|-7-7-7-7-7---7---|
A|-6---6---6-6-6-6-|-6-6-6-6-6-6-6-6-|-5---5---5---5---|-5-5-5-5-5---5---|
E|-----------------|-----------------|-----------------|-----------------|

e|-----------------|-----------------|
B|-----------------|-------6-/8--6---|
G|-----------------|-5-7-8-----------|
D|-------5-7-8-7-8-|-----------------|
A|-5-7-8-----------|-----------------|
E|-----------------|-----------------|
_________________________________________________________________________________

Chorus 2
"When I'm gone and you are broke, You will find another toy"
Guitar 1
e|--------------------------|--------------------------|
B|--------------------------|--------------------------|
G|-5---5---5-5-5------------|---------------8-8-8-8-8-8|
D|-5---5---5-5-5-6-6-6--6-6-|-5---5---5-5-5-8-8-8-8-8-8|
A|-3---3---3-3-3-6-6-6--6-6-|-5---5---5-5-5-6-6-6-6-6-6|
E|---------------4-4-4--4-4-|-3---3---3-3-3------------|
                                                       |
Guitar 2                                               |
e|--------------------------|--------------------------|
B|--------------------------|--------------------------|
G|-5---5---5-5-5------------|--------------------------|
D|-5---5---5-5-5-1-1-1-0----|-5---5---5-5-5-1-1-1-0----|
A|-3---3---3-3-3---------3-1|-5---5---5-5-5---------3-1|
E|--------------------------|-3---3---3-3-3------------|

Guitar 1
e|--------------------------|--------------------------|
B|--------------------------|--------------------------|
G|-5---5---5-5-5------------|---------------8-8-8-8-8-8|
D|-5---5---5-5-5-6-6-6--6-6-|-5---5---5-5-5-8-8-8-8-8-8|
A|-3---3---3-3-3-6-6-6--6-6-|-5---5---5-5-5-6-6-6-6-6-6|
E|---------------4-4-4--4-4-|-3---3---3-3-3------------|
                                                       |
Guitar 2                                               |
e|--------------------------|--------------------------|
B|----------3-----------3---|----------3-----------3---|
G|------------5-----------5-|------------5-----------5-|
D|--------------------------|--------------------------|
A|--------------------------|--------------------------|
E|--------------------------|--------------------------|

"When I'm broke and you have gone, You will find another toy"
Guitar 1
e|--------------------------|--------------------------|
B|--------------------------|--------------------------|
G|-5---5---5-5-5------------|---------------8-8-8-8-8-8|
D|-5---5---5-5-5-6-6-6--6-6-|-5---5---5-5-5-8-8-8-8-8-8|
A|-3---3---3-3-3-6-6-6--6-6-|-5---5---5-5-5-6-6-6-6-6-6|
E|---------------4-4-4--4-4-|-3---3---3-3-3------------|
                                                       |
Guitar 2                                               |
e|--------------------------|--------------------------|
B|--------------------------|--------------------------|
G|-5---5---5-5-5------------|--------------------------|
D|-5---5---5-5-5-1-1-1-0----|-5---5---5-5-5-1-1-1-0----|
A|-3---3---3-3-3---------3-1|-5---5---5-5-5---------3-1|
E|--------------------------|-3---3---3-3-3------------|

Guitar 1
e|--------------------------|--------------------------|
B|--------------------------|--------------------------|
G|-5---5---5-5-5------------|---------------8-8-8-8-8-8|
D|-5---5---5-5-5-6-6-6--6-6-|-5---5---5-5-5-8-8-8-8-8-8|
A|-3---3---3-3-3-6-6-6--6-6-|-5---5---5-5-5-6-6-6-6-6-6|
E|---------------4-4-4--4-4-|-3---3---3-3-3------------|
                                                       |
Guitar 2                                               |
e|--------------------------|--------------------------|
B|----------3-----------3---|----------3-----------3---|
G|------------5-----------5-|------------5-----------5-|
D|--------------------------|--------------------------|
A|--------------------------|--------------------------|
E|--------------------------|--------------------------|
_________________________________________________________________________________

Verse 2
"I'm always staring at my watch, When I'm there with you"
e|---------1-------|---------1-------|---------3-------|-----------------|
B|---------1-------|---------1-------|---------3-------|-----------------|
G|---------2-------|---------2-------|---------4-------|-----1/3\1p0-----|
D|-3-3-3-3-3-3-3-3-|-3-3-3-3-3-3-3-3-|-5-5-5-5-5-5-5-5-|-5-5--------h3\1-|
A|-3-3-3-3-3-3-3-3-|-3-3-3-3-3-3-3-3-|-5-5-5-5-5-5-5-5-|-5-5-------------|
E|-1-1-1-1-1-1-1-1-|-1-1-1-1-1-1-1-1-|-3-3-3-3-3-3-3-3-|-3-3-------------|

"I think I've bitten off more than I can chew"
e|---------1-------|---------1-------|---------3-------|-----------------|
B|---------1-------|---------1-------|---------3-------|-----------------|
G|---------2-------|---------2-------|---------4-------|-----------------|
D|-3-3-3-3-3-3-3-3-|-3-3-3-3-3-3-3-3-|-5-5-5-5-5-5-5-5-|-5-5-1/3\1p0-----|
A|-3-3-3-3-3-3-3-3-|-3-3-3-3-3-3-3-3-|-5-5-5-5-5-5-5-5-|-5-5--------h3\1-|
E|-1-1-1-1-1-1-1-1-|-1-1-1-1-1-1-1-1-|-3-3-3-3-3-3-3-3-|-3-3-------------|

"I think it's one thing I'll never get to learn"
e|-----------------|-----------------|-----------------|-----------------|
B|-----------------|-----------------|-----------------|-----------------|
G|-3---3---3-3-3-3-|-3-3-3-3-3-3-3-3-|-----------------|-----------------|
D|-3---3---3-3-3-3-|-3-3-3-3-3-3-3-3-|-3---3---3-3-3-3-|-3-3-3-3-3-3-3-3-|
A|-1---1---1-1-1-1-|-1-1-1-1-1-1-1-1-|-3---3---3-3-3-3-|-3-3-3-3-3-3-3-3-|
E|-----------------|-----------------|-1---1---1-1-1-1-|-1-1-1-1-1-1-1-1-|

"If you ignore advice you'll end up getting burned"
Guitar 1
e|-----------------|-----------------|-----------------|
B|-----------------|-----------------|-----------------|
G|-8---8---8-8-8-8-|-8-8-8-8-8-8-8-8-|-7---------------|
D|-8---8---8-8-8-8-|-8-8-8-8-8-8-8-8-|-7---------------|
A|-6---6---6-6-6-6-|-6-6-6-6-6-6-6-6-|-5---------------|
E|-----------------|-----------------|-----------------|
_________________________________________________________________________________

Bridge

Guitar 2 light dist
e|-5-5-3-5-1-1-1-1-|-0-1-0-----------|-----------------|-----------------|
B|-----------------|-------1-/3--3-3-|-3-3-------------|-----------------|
G|-----------------|-----------------|-----2-2-3-3-3-3-|-3-3-3p2p0-------|
D|-----------------|-----------------|-----------------|-----------h3-p0-|
A|-----------------|-----------------|-----------------|-----------------|
E|-----------------|-----------------|-----------------|-----------------|
                                                                         |
Guitar 3 Clean (not 100% but sounds ok)                                  |
e|-----------------|-----------------|-----------------|-----1-------1---|
B|-----3-------3---|-----3-------3---|-----3-------3---|---3---3---3---3-|
G|---2---2---2---2-|---3---3---3---3-|---2---2---2---2-|-3-------3-------|
D|-0-------0-------|-3-------3-------|-0-------0-------|-----------------|
A|-----------------|-----------------|-----------------|-----------------|
E|-----------------|-----------------|-----------------|-----------------|

        /"I've got no time for me, so I've got no time for you"         \x4
        \"I've got no time to walk along and try and think it through"  /
Guitar 2
e|-5-5-3-5-1-1-1-1-|-0-1-0-----------|-----------------|-----------------|
B|-----------------|-------1-/3--3-3-|-3-3-------------|-----------------|
G|-----------------|-----------------|-----2-2-3-3-3-3-|-3-3-3p2p0-------|
D|-----------------|-----------------|-----------------|-----------h3-p0-|
A|-----------------|-----------------|-----------------|-----------------|
E|-----------------|-----------------|-----------------|-----------------|
                                                                         | x4
Guitar 3                                                                 |
e|-----------------|-----------------|-----------------|-----1-------1---|
B|-----3-------3---|-----3-------3---|-----3-------3---|---3---3---3---3-|
G|---2---2---2---2-|---3---3---3---3-|---2---2---2---2-|-3-------3-------|
D|-0-------0-------|-3-------3-------|-0-------0-------|-----------------|
A|-----------------|-----------------|-----------------|-----------------|
E|-----------------|-----------------|-----------------|-----------------|

light dist
e|-----------------|
B|-----------------|
G|-3---------------|
D|-3---------------|
A|-1---------------|
E|-----------------|
_________________________________________________________________________________

Break

Dist both
Guitar 1
e|--------------------------|--------------------------|
B|--------------------------|--------------------------|
G|-5---5---5-5-5------------|---------------8-8-8-8-8-8|
D|-5---5---5-5-5-6-6-6--6-6-|-5---5---5-5-5-8-8-8-8-8-8|
A|-3---3---3-3-3-6-6-6--6-6-|-5---5---5-5-5-6-6-6-6-6-6|
E|---------------4-4-4--4-4-|-3---3---3-3-3------------|
                                                       | x2
Guitar 2                                               |
e|--------------------------|--------------------------|
B|--------------------------|--------------------------|
G|-5---5---5-5-5------------|--------------------------|
D|-5---5---5-5-5-1-1-1-0----|-5---5---5-5-5-1-1-1-0----|
A|-3---3---3-3-3---------3-1|-5---5---5-5-5---------3-1|
E|--------------------------|-3---3---3-3-3------------|

e|--------------------------|--------------------------|
B|--------------------------|--------------------------|
G|-5---5----\---------------|---------------8-8-8-8-8-8|
D|---------------6-6-6--6-6-|-5---5---5-5-5-8-8-8-8-8-8|
A|-3---3----\----6-6-6--6-6-|-5---5---5-5-5-6-6-6-6-6-6|
E|---------------4-4-4--4-4-|-3---3---3-3-3------------|
                                                       | 
Guitar 2                                               |
e|--------------------------|--------------------------|
B|--------------------------|--------------------------|
G|-5---5----\---------------|--------------------------|
D|-5---5----\----1-1-1-0----|-5---5---5-5-5-1-1-1-0----|
A|-3---3----\------------3-1|-5---5---5-5-5---------3-1|
E|--------------------------|-3---3---3-3-3------------|

Guitar 1
e|--------------------------|--------------------------|
B|--------------------------|--------------------------|
G|-5---5---5-5-5------------|---------------8-8-8-8-8-8|
D|-5---5---5-5-5-6-6-6--6-6-|-5---5---5-5-5-8-8-8-8-8-8|
A|-3---3---3-3-3-6-6-6--6-6-|-5---5---5-5-5-6-6-6-6-6-6|
E|---------------4-4-4--4-4-|-3---3---3-3-3------------|
                                                       |
Guitar 2                                               |
e|--------------------------|--------------------------|
B|--------------------------|--------------------------|
G|-5---5---5-5-5------------|--------------------------|
D|-5---5---5-5-5-1-1-1-0----|-5---5---5-5-5-1-1-1-0----|
A|-3---3---3-3-3---------3-1|-5---5---5-5-5---------3-1|
E|--------------------------|-3---3---3-3-3------------|
_________________________________________________________________________________

Verse 3
"It wouldn't be so bad If I was a million miles away"
"I could have come back to live another day"
e|---------1-------|---------1-------|---------3-------|-----------------|
B|---------1-------|---------1-------|---------3-------|-----------------|
G|---------2-------|---------2-------|---------4-------|-----------------|x2
D|-3-3-3-3-3-3-3-3-|-3-3-3-3-3-3-3-3-|-5-5-5-5-5-5-5-5-|-5-5-5-5-7---5---|
A|-3-3-3-3-3-3-3-3-|-3-3-3-3-3-3-3-3-|-5-5-5-5-5-5-5-5-|-5-5-5-5-7---5---|
E|-1-1-1-1-1-1-1-1-|-1-1-1-1-1-1-1-1-|-3-3-3-3-3-3-3-3-|-3-3-3-3-5---3---|

"I might have even heard you trying to explain"
e|-----------------|-----------------|-----------------|-----------------|
B|-----------------|-----------------|-----------------|-----------------|
G|-3---3---3-3-3-3-|-3-3-3-3-3-3-3-3-|-----------------|-----------------|
D|-3---3---3-3-3-3-|-3-3-3-3-3-3-3-3-|-3---3---3-3-3-3-|-3-3-3-3-3-3-3-3-|
A|-1---1---1-1-1-1-|-1-1-1-1-1-1-1-1-|-3---3---3-3-3-3-|-3-3-3-3-3-3-3-3-|
E|-----------------|-----------------|-1---1---1-1-1-1-|-1-1-1-1-1-1-1-1-|

"But with you I'll never get to see another day"
e|-----------------|-----------------|-----------------|-----------------|
B|-----------------|-----------------|-----------------|-----------------|
G|-8---8---8-8-8-8-|-8-8-8-8-8-8-8-8-|-7---7---7---7---|-7-7-7-7-7---7---|
D|-8---8---8-8-8-8-|-8-8-8-8-8-8-8-8-|-7---7---7---7---|-7-7-7-7-7---7---|
A|-6---6---6-6-6-6-|-6-6-6-6-6-6-6-6-|-5---5---5---5---|-5-5-5-5-5---5---|
E|-----------------|-----------------|-----------------|-----------------|

e|-----------------|-----------------|
B|-----------------|-------6-/8--6---|
G|-----------------|-5-7-8-----------|
D|-------5-7-8-7-8-|-----------------|
A|-5-7-8-----------|-----------------|
E|-----------------|-----------------|
_________________________________________________________________________________

Chorus 3
"When I'm gone and you are broke, You will find another toy"
Guitar 1
e|--------------------------|--------------------------|
B|--------------------------|--------------------------|
G|-5---5---5-5-5------------|---------------8-8-8-8-8-8|
D|-5---5---5-5-5-6-6-6--6-6-|-5---5---5-5-5-8-8-8-8-8-8|
A|-3---3---3-3-3-6-6-6--6-6-|-5---5---5-5-5-6-6-6-6-6-6|
E|---------------4-4-4--4-4-|-3---3---3-3-3------------|
                                                       |
Guitar 2                                               |
e|--------------------------|--------------------------|
B|--------------------------|--------------------------|
G|-5---5---5-5-5------------|--------------------------|
D|-5---5---5-5-5-1-1-1-0----|-5---5---5-5-5-1-1-1-0----|
A|-3---3---3-3-3---------3-1|-5---5---5-5-5---------3-1|
E|--------------------------|-3---3---3-3-3------------|

Guitar 1
e|--------------------------|--------------------------|
B|--------------------------|--------------------------|
G|-5---5---5-5-5------------|---------------8-8-8-8-8-8|
D|-5---5---5-5-5-6-6-6--6-6-|-5---5---5-5-5-8-8-8-8-8-8|
A|-3---3---3-3-3-6-6-6--6-6-|-5---5---5-5-5-6-6-6-6-6-6|
E|---------------4-4-4--4-4-|-3---3---3-3-3------------|
                                                       |
Guitar 2                                               |
e|--------------------------|--------------------------|
B|--------------------------|--------------------------|
G|-5---5---5-5-5------------|--------------------------|
D|-5---5---5-5-5-1-1-1-0----|-5---5---5-5-5-1-1-1-0----|
A|-3---3---3-3-3---------3-1|-5---5---5-5-5---------3-1|
E|--------------------------|-3---3---3-3-3------------|

"When I'm broke and you have gone, You will find another toy"
Guitar 1
e|--------------------------|--------------------------|
B|--------------------------|--------------------------|
G|-5---5---5-5-5------------|---------------8-8-8-8-8-8|
D|-5---5---5-5-5-6-6-6--6-6-|-5---5---5-5-5-8-8-8-8-8-8|
A|-3---3---3-3-3-6-6-6--6-6-|-5---5---5-5-5-6-6-6-6-6-6|
E|---------------4-4-4--4-4-|-3---3---3-3-3------------|
                                                       |
Guitar 2                                               |
e|--------------------------|--------------------------|
B|--------------------------|--------------------------|
G|-5---5---5-5-5------------|--------------------------|
D|-5---5---5-5-5-1-1-1-0----|-5---5---5-5-5-1-1-1-0----|
A|-3---3---3-3-3---------3-1|-5---5---5-5-5---------3-1|
E|--------------------------|-3---3---3-3-3------------|

                "you'll find another toy"
Guitar 1
e|--------------------------|--------------------------|
B|--------------------------|--------------------------|
G|-5---5---5-5-5------------|---------------8-8-8-8-8-8|
D|-5---5---5-5-5-6-6-6--6-6-|-5---5---5-5-5-8-8-8-8-8-8|
A|-3---3---3-3-3-6-6-6--6-6-|-5---5---5-5-5-6-6-6-6-6-6|
E|---------------4-4-4--4-4-|-3---3---3-3-3------------|
                                                       |
Guitar 2                                               |
e|--------------------------|--------------------------|
B|--------------------------|--------------------------|
G|-5---5---5-5-5------------|--------------------------|
D|-5---5---5-5-5-1-1-1-0----|-5---5---5-5-5-1-1-1-0----|
A|-3---3---3-3-3---------3-1|-5---5---5-5-5---------3-1|
E|--------------------------|-3---3---3-3-3------------|

"When I'm gone and you are broke, You will find another toy"
Guitar 1
e|--------------------------|--------------------------|
B|--------------------------|--------------------------|
G|-5---5---5-5-5------------|---------------8-8-8-8-8-8|
D|-5---5---5-5-5-6-6-6--6-6-|-5---5---5-5-5-8-8-8-8-8-8|
A|-3---3---3-3-3-6-6-6--6-6-|-5---5---5-5-5-6-6-6-6-6-6|
E|---------------4-4-4--4-4-|-3---3---3-3-3------------|
                                                       |
Guitar 2                                               |
e|--------------------------|--------------------------|
B|--------------------------|--------------------------|
G|-5---5---5-5-5------------|--------------------------|
D|-5---5---5-5-5-1-1-1-0----|-5---5---5-5-5-1-1-1-0----|
A|-3---3---3-3-3---------3-1|-5---5---5-5-5---------3-1|
E|--------------------------|-3---3---3-3-3------------|

                "you'll find another toy"
Guitar 1
e|--------------------------|--------------------------|
B|--------------------------|--------------------------|
G|-5---5---5-5-5------------|---------------8-8-8-8-8-8|
D|-5---5---5-5-5-6-6-6--6-6-|-5---5---5-5-5-8-8-8-8-8-8|
A|-3---3---3-3-3-6-6-6--6-6-|-5---5---5-5-5-6-6-6-6-6-6|
E|---------------4-4-4--4-4-|-3---3---3-3-3------------|
                                                       |
Guitar 2                                               |
e|--------------------------|--------------------------|
B|--------------------------|--------------------------|
G|-5---5---5-5-5------------|--------------------------|
D|-5---5---5-5-5-1-1-1-0----|-5---5---5-5-5-1-1-1-0----|
A|-3---3---3-3-3---------3-1|-5---5---5-5-5---------3-1|
E|--------------------------|-3---3---3-3-3------------|

"When I'm broke and you have gone, You will find another toy"
Guitar 1
e|--------------------------|--------------------------|
B|--------------------------|--------------------------|
G|-5---5---5-5-5------------|---------------8-8-8-8-8-8|
D|-5---5---5-5-5-6-6-6--6-6-|-5---5---5-5-5-8-8-8-8-8-8|
A|-3---3---3-3-3-6-6-6--6-6-|-5---5---5-5-5-6-6-6-6-6-6|
E|---------------4-4-4--4-4-|-3---3---3-3-3------------|
                                                       |
Guitar 2                                               |
e|--------------------------|--------------------------|
B|--------------------------|--------------------------|
G|-5---5---5-5-5------------|--------------------------|
D|-5---5---5-5-5-1-1-1-0----|-5---5---5-5-5-1-1-1-0----|
A|-3---3---3-3-3---------3-1|-5---5---5-5-5---------3-1|
E|--------------------------|-3---3---3-3-3------------|

"You will find another toy, You will find another toy"
Guitar 1
e|--------------------------|--------------------------|
B|--------------------------|--------------------------|
G|-5---5---5-5-5------------|---------------8-8-8-8-8-8|
D|-5---5---5-5-5-6-6-6--6-6-|-5---5---5-5-5-8-8-8-8-8-8|
A|-3---3---3-3-3-6-6-6--6-6-|-5---5---5-5-5-6-6-6-6-6-6|
E|---------------4-4-4--4-4-|-3---3---3-3-3------------|
                                                       |
Guitar 2                                               |
e|--------------------------|--------------------------|
B|--------------------------|--------------------------|
G|-5---5---5-5-5------------|--------------------------|
D|-5---5---5-5-5-1-1-1-0----|-5---5---5-5-5-1-1-1-0----|
A|-3---3---3-3-3---------3-1|-5---5---5-5-5---------3-1|
E|--------------------------|-3---3---3-3-3------------|

"toy, toy, toy, toy" 
"toy, toy, toy, toy"
"You will find, you will find, you will find another toy"
"You will find another toy, you will find another toy"
e|-----------------|-----------------|-----------------|-----------------|
B|-----------------|-----------------|-----------------|-----------------|
G|-5---5---5---5---|-----------------|-----------------|-8---8---8---8---| x4
D|-5---5---5---5---|-6---6---6---6---|-5---5---5---5---|-8---8---8---8---|
A|-3---3---3---3---|-6---6---6---6---|-5---5---5---5---|-6---6---6---6---|
E|-----------------|-4---4---4---4---|-3---3---3---3---|-----------------|

Guitar 1
e|-----------------|-----------------|-----------------|-----------------|
B|-----------------|-----------------|-----------------|-----------------|
G|-5---------------|-----------------|-----------------|-----------------|
D|-5---------------|-----------------|-----------------|-----------------|
A|-3---------------|-----------------|-----------------|-----------------|
E|-----------------|-----------------|-----------------|-----------------|
                                                                         |
Guitar 2 Clean                                                           |
e|-----------------|-----------------|-----------------|-----------------|
B|-------------3---|-------------3---|-------------3---|-------------3---|
G|---------------5-|---------------5-|---------------5-|---------------5-|
D|-----------------|-----------------|-----------------|-----------------|
A|-3---------------|-----------------|-----------------|-----------------|
E|-----------------|-4---------------|-3---------------|-4---------------|

e|-----------------|-----------------|-----------------|-----------------|
B|-------------3---|-------------3---|-------------3---|-------------3---|
G|---------------5-|---------------5-|---------------5-|---------------5-|
D|-----------------|-----------------|-----------------|-----------------|
A|-3---------------|-----------------|-----------------|-----------------|
E|-----------------|-4---------------|-3---------------|-4---------------|

"When I'm broke and you have gone, You will find another toy"
"But when you're broke and I have gone, I will find another toy"
Another toy
e|-----------------|-----------------|-----------------|-----------------|
B|-------------3---|-------------3---|-------------3---|-------------3---|
G|---------------5-|---------------5-|---------------5-|---------------5-| x4
D|-----------------|-----------------|-----------------|-----------------|
A|-3---------------|-----------------|-----------------|-----------------|
E|-----------------|-4---------------|-3---------------|-4---------------|

e|-----------------|
B|-----------------|
G|-5---------------|
D|-5---------------|
A|-3---------------|
E|-----------------|
_________________________________________________________________________________




Enjoy
Please rate and leave constructive comments/feedback
paddyonthetoadstool@hotmail.com April 2015
Добавлено: 31.10.2015
Другие материалы по этой песне:
  • Аккорды и текст

Страница создана 20.03.2012
http://primanota.ru/china-drum/another-toy-chords.htm
Привет, Гость.
Предлагаем пройти революционный курс по гитаре.
Подарок от PrimaNota.Ru, забирай!