PrimaNota.ru - самый крупный в мире бесплатный архив песенных текстов, аккордов, табулатур и нот


China Crisis - Working With Fire And Steel - текст песни, бас-таба, видео

Регистрация Запомнить меня
Войти через:  Facebook Google Twitter Vk Yandex Mail.ru

China Crisis - Working With Fire And Steel - текст песни, бас-таба, видео

Печатать
Просмотров: 148
Уроки эстрадного вокала в Санкт-Петербурге
Авторы музыки: Gary Daly, Eddie Lundon
Авторы текста: Gary Daly
China Crisis - Working with Fire and Steel

Intro / Verse
G:----------------|----------------| ---------------|-----------------|
D:----------------|----------------| ---------------|-----------------|
A:-2---0-2-0------|-2---0-2-0------|-0-0-4---0------|-0-0-4---0-------|
E:---2-------4-2-0|---2-------4-2-0|-------0---4-2-0|-------0---4-2-0-|


Chorus
G:----------------|----------------|----------------|-----------------|
D:----------------|----------------|----------------|-----------------|
A:-0-0-----0-0----|-----2-2-----2-2|-2-2-----2-2----|-2-2-----2-2-----|
E:-----0-0-----0-0|-0-0-----0-0----|-----2-2-----2-2|-----2-2-----2-2-|



Middle
G:------------3-5-|-------3-------|
D:-----5-3--3-----|-----5---------|
A:---6------------|-6-6-----6-6-6-|
E:-3--------------|---------------|
Добавлено: 03.09.2013
Другие материалы по этой песне:
  • Аккорды и текст

Страница создана 18.03.2012
http://primanota.ru/china-crisis/working-with-fire-and-steel-chords.htm
Привет, Гость.
Предлагаем пройти революционный курс по гитаре.
Подарок от PrimaNota.Ru, забирай!