PrimaNota.ru - самый крупный в мире бесплатный архив песенных текстов, аккордов, табулатур и нот


Chimaira - Overlooked - аккорды и текст, таба, видео

Регистрация Запомнить меня
Войти через:  Facebook Google Twitter Vk Yandex Mail.ru

Chimaira - Overlooked - аккорды и текст, таба, видео

Печатать
Просмотров: 208
Уроки эстрадного вокала в Санкт-Петербурге
Overlooked
Chimaira
Band: Chimaira
Song: Overlooked
 
Tabber: John Cukras
AIM: sanguinarylord

Tuning: C G C F A D

Riff 1:
D----------------------
A----------------------
F----------------------
C----------------------
G-0-0-1h2-0-0-3h4-0-2h1
C-0-0-1h2-0-0-3h4-0-2h1  x's 12
pm. .     . .     .

Riff 2:  Part A             Part B
D-----------------------|---------------------------------------------------------------------------------------------
A-----------------------|---------------------------------------------------------------------------------------------
F-----------------------|---------------------------------------------------------------------------------------------
C-3---------------------|-3--------------3------------------------3---------------------------------------------------
G-1--------3-4-3--------|-1--------3-4---1------------------------1---------3-4-3------------------1-0-1h2-0-4h3-0-1h2
C---000000-3-4-3- x's 3-|---000000-3-4------000-1h2-00-3h4-00-2h1---0000000-3-4-3  Then Part A ----1-0-1h2-0-4h3-0-1h2
pm  ......         ......          ...     ..     ..       .......

Riff 1 x's 4

Riff 2: Part A x's 7 , Part B , Part A

Riff 3:  = octave
D------------------------------------------------------------------------------
A------------------------------------------------------------------------------
F-----------------------333333-22222222--------------------------------------3
C-----------55555-44444-----------------------------333333-55555555-6666666----
G--5-0000-------------------------------4-0-4-3------------------------------
C-----0000----------------------------------0-4-3------------------------------ x's 5
pm    ....                         .

D----------------------------------------------------------------------------------------
A----------------------------------------------------------------------------------------
F----------------------3333-2222------------------------------66666-555555---------------
C-----------55555-4444----------------------33333-55555-66666---------------555555-333333
G--5-00000-----------------------4-0-4-3-----------------------------------------------
C-----00000--------------------------0-4-3-----------------------------------------------
pm    .....                 .

Riff 4:
D--------------------------------------------------------------------------------------------
A--------------------------------------------------------------------------------------------
F-----------------------------------33333-22222--------------------------------------------3
C----------------------55555-44444-------------------------------------33333-555555-66666----
G-5-0000-0000-5-0000---------------------------5-0000-0000-5-0000------------------------
C----0000-0000----0000------------------------------0000-0000----0000------------------------ x's 2
pm   .... ....    ....                     .... ....    ....

Riff 2: Part A x's 10

Riff 1 x's 16 (fades out)
Добавлено: 17.10.2013
Другие материалы по этой песне:
  • Аккорды и текст

Страница создана 08.03.2012
http://primanota.ru/chimaira/overlooked-chords.htm
Привет, Гость.
Предлагаем пройти революционный курс по гитаре.
Подарок от PrimaNota.Ru, забирай!