PrimaNota.ru - самый крупный в мире бесплатный архив песенных текстов, аккордов, табулатур и нот


Chilliwack - Ground Hog - таба, видео

Регистрация Запомнить меня
Войти через:  Facebook Google Twitter Vk Yandex Mail.ru

Chilliwack - Ground Hog - таба, видео

Печатать
Просмотров: 110
Artist: Chilliwack
Song: Ground hog


Guitar 1
E-------------------------------|
B-------------------------------|
G----1-1-0-0--------------------|
D----2-2-0-0--------------------|
A----2-2-0-0--------------------|
E-------------------------------|

Guitar two

E-------------------------------------|
B-------------------------------------|
G-------------------------------------|
D-------------------------------------|
A-------------------------------------|
E---------------------0/12------------|

Play the above parts in unison together repeat many times... listen to the song to get it

guitar 1
End of verse riff thingy
E--------------------------------|
B--------0-----------------------|
G----1-1---0--1-1----------------|
D----2-2---0--2-2----------------|
A----2-2---0--2-2----------------|
E--------------------------------|

guitar 3
Lots of slide work here. This is all I can figure out at the moment.

What makes your teeth so white...(play after he sings this)

E--75p0---1/3/7-----------------------------------------|
B------------------7/12~~~---7/12~~----7/12~~---7-/12~~-|
G-------------------------------------------------------|
D-------------------------------------------------------|
A-------------------------------------------------------|
E-------------------------------------------------------|


Lyrics:

Ground hog, oh ground hog.
How come your backs so brown?
How come your liven in the ground so darn long?
It�s a wonder I ain�t brown now, it�s a wonder I ain�t brown.

Red bird, red bird
What makes your head so red?
How come pickin your corn all a day long?
It�s a wonder I ain�t dead, it�s a wonder I ain�t dead dead 
a wonder I ain�t dead


Ooh Rattlesnake, Oh Rattlesnake
Well what makes your teeth so white?
How comin sittin in the son all a day long?
You�re lucky I don�t bite, you�re lucky I don�t bite bite, 
lucky I don�t bite.
You�re lucky I don�t bite bite, you�re lucky I don�t biiiiiiiite.

Muskrat, oh Muskrat.
Ooh, why do you smell so bad?
How come liven in the ground all my life?
I�m bonafide if I had, I�m bonafide if I had had,
I�m bonafide if I had, I�m bonafide if I had had.
Добавлено: 02.04.2012
Другие материалы по этой песне:
  • Аккорды и текст

Страница создана 02.04.2012
http://primanota.ru/chilliwack/ground-hog-chords.htm
Привет, Гость.
Предлагаем пройти революционный курс по гитаре.
Подарок от PrimaNota.Ru, забирай!