PrimaNota.ru - самый крупный в мире бесплатный архив песенных текстов, аккордов, табулатур и нот


Chillingworth Sonny - Moe Uhane - таба, видео

Регистрация Запомнить меня
Войти через:  Facebook Google Twitter Vk Yandex Mail.ru

Chillingworth Sonny - Moe Uhane - таба, видео

Печатать
Просмотров: 85
Moe 'Uhane
by Sonny Chillingworth
Tuning: DGDGBD (open G)     4/4 time
I got this off the Hawaiian Slack-Key Guitar Masters Vol.1
album on Dancing Cat Records, though you can find it on
Sonny's own albums also (don't know any titles - sorry).
There are very few tabs for this kind of music on the whole
of the internet, and it's a great shame. Anyway, here's my
contribution.
Advance apologies for any mistakes. I think this tab is
fairly accurate.   james_calton@yahoo.com

1
|-----0---------0--------0--|-----0--------0-----------0--|
|--------3---------3--------|--------3--------------3-----|
|---------------------------|--------------------0--------|
|------------0--------0-----|-----------0-----0-----0-----|
|--0------------------------|--0--------------------------|
|---------------------------|-----------------------------|

repeat bar 2 twice, then:

3
|-----0--------2p0--------0--|-----5---------2---0----|
|--------3----------3--------|--------0---------------|
|----------------------------|------------------------|
|-----------0----------0-----|------------0------0----|
|--0-------------------------|--0---------------------|
|----------------------------|------------------------|

5
|-----2------------2-----0--|-----5---------2---0---|
|--------1------1-----------|--------0--------------|
|---------------0-----------|-----------------------|
|------------2--------2-----|------------0------0---|
|--0------------------------|--0--------------------|
|---------------------------|-----------------------|

7
|-----0---------2p0------0--|----------------2---0--|
|--------3------------3-----|-----7-\-1-------------|
|---------------------------|-----------------------|
|------------0--------0-----|-------------0------0--|
|--0------------------------|-----------------------|
|---------------------------|--0--------------------|

9
|-----0---------2p0------0--|-----5---------2---0---|
|--------3------------3-----|--------0--------------|
|---------------------------|-----------------------|
|------------0--------0-----|------------0------0---|
|---------------------------|--0--------------------|
|--0------------------------|-----------------------|

11
|-----0---------2-----------0--|-----5---------2---0--|
|--------3---------3-----3-----|--------0-------------|
|---------------------0--------|----------------------|
|------------0-----------0-----|------------0------0--|
|--0---------------------------|--0-------------------|
|------------------------------|----------------------|

13
|-----2-----------2------0--|-----5---------2---0--|
|--------1------------------|--------0-------------|
|--------------0------------|----------------------|
|-----------2---------2-----|------------0------0--|
|--0------------------------|--0-------------------|
|---------------------------|----------------------|

15
|-----0---------2p0------0--|-----4---------2---0---|
|--------3------------3-----|--------1--------------|
|---------------------------|-----------------------|
|------------0--------0-----|------------0------0---|
|--0------------------------|-----------------------|
|---------------------------|--0--------------------|

17
|-----0---------2p0------0--|-----5---------2---0---|
|--------3------------3-----|--------0--------------|
|---------------------------|-----------------------|
|------------0--------0-----|------------0------0---|
|---------------------------|--0--------------------|
|--0------------------------|-----------------------|

19
|-----0---------2p0------0--|-----5---------2---0---|
|--------3------------3-----|--------0--------------|
|---------------------------|-----------------------|
|------------0--------0-----|------------0------0---|
|--0------------------------|--0--------------------|
|---------------------------|-----------------------|

21     roll----------->
|--------------------0--0--|-----5---------2---0---|
|-------5-----3-----1------|--------0--------------|
|------0-----0-----0-------|-----------------------|
|-----5-----4-----2--------|------------0------0---|
|--0-----------------------|--0--------------------|
|--------------------------|-----------------------|

23
|-----0---------2p0------0--|-----4---------2---0--|
|--------3------------3-----|--------1-------------|
|---------------------------|----------------------|
|------------0--------0-----|------------0------0--|
|--0------------------------|----------------------|
|---------------------------|--0-------------------|

25
|-----0---------2p0------0--|-----5---------2---0--|
|--------3------------3-----|--------0-------------|
|---------------------------|----------------------|
|------------0--------0-----|------------0------0--|
|---------------------------|--0-------------------|
|--0------------------------|----------------------|

27
|-----0---------0--------------|-----0--------0-----0--|
|--------8---------7--------5--|--------3--------------|
|------------------------0-----|-----------------------|
|------------0--------0--------|-----------0-----0-----|
|--0---------------------------|--0--------------------|
|------------------------------|-----------------------|

29
|-----5---------------5---|-----0------------0---|
|--------5-----7---5------|------------8---------|
|------------------5------|--0-------------------|
|-----------5------5------|---------0-----0------|
|--5----------------------|--0-------------------|
|-------------------------|----------------------|

31
|-----0---------0------------|-----0-----------0--------|
|--------8---------8-----10--|--------10-------12---13--|
|----------------------------|--------------------------|
|------------0--------0------|-------------0--------0---|
|--0-------------------------|--------------------------|
|----------------------------|--0-----------------------|

33
|-----0----------0-----------|-----0--------0--------0--|
|--------13---------12---10--|--------8--------8--------|
|----------------------------|--------------------------|
|-------------0----------0---|-----------0--------0-----|
|----------------------------|--0-----------------------|
|--0-------------------------|--------------------------|
 
35
|-----0-------------------------|-----5--------5-----0--|
|--------7------5-/-10---7-/-8--|--------0--------------|
|-------------------------------|-----------------------|
|------------0-------------0----|-----------0-----0-----|
|-------------------------------|--0--------------------|
|--0----------------------------|-----------------------|

37
|-----0-----------------0--|-----0------------------|
|--------3-/-5-------------|--------8-------5---3---|
|--------------------------|------------------------|
|----------------0---0-----|------------0-------0---|
|--0-----------------------|--0---------------------|
|--------------------------|------------------------|

39
|-----5---------5--7-----/-9--|-------------------|
|--------5--------------------|-----8------3------|
|-----------------------------|-------------------|
|------------5--------5-------|---------0------0--|
|--5--------------------------|--0----------------|
|-----------------------------|-------------------|

41
|----12---------12---------12--|----12------------10-----9-|
|--------12---------12---------|---------------------------|
|------------------------------|--------11-----9-----------|
|------------0----------0------|------------0---------0----|
|-0----------------------------|---------------------------|
|------------------------------|--0------------------------|
 
43
|-----9-----------7-------|-------5---------5------0--|
|-------------------------|---------------------------|
|--------7-----5----------|-5p4------4----------------|
|-----------0--------0----|--------------0------0-----|
|-------------------------|---0-----------------------|
|--0----------------------|---------------------------|

45
|-----0------------0---4-/-5--|-----5---------5-----0---|
|--------0------1-------------|--------0----------------|
|-----------------------------|-------------------------|
|------------0---------0------|------------0-----0------|
|-----------------------------|--0----------------------|
|--0--------------------------|-------------------------|

47
|-----0---------2p0------0--|-----5---------2---0---|
|--------3------------3-----|--3-----0--------------|
|---------------------------|-----------------------|
|------------0--------0-----|------------0------0---|
|--0------------------------|--0--------------------|
|---------------------------|-----------------------|

49
|-----2------------2------0--|-----5---------2---0---|
|--------1-------------------|--------0--------------|
|---------------0------------|-----------------------|
|------------2---------2-----|------------0------0---|
|--0-------------------------|--0--------------------|
|----------------------------|-----------------------|

51
|-----0---------2p0------0--|----------------2---0--|
|--------3------------3-----|-----7-\-1-------------|
|---------------------------|-----------------------|
|------------0--------0-----|-------------0------0--|
|--0------------------------|-----------------------|
|---------------------------|--0--------------------|

53
|-----0---------2p0------0--|-----5---------2---0---|
|--------3------------3-----|--------0--------------|
|---------------------------|-----------------------|
|------------0--------0-----|------------0------0---|
|---------------------------|--0--------------------|
|--0------------------------|-----------------------|

55
|-----0---------2p0------0--|-----5---------2---0---|
|--------3------------3-----|--------0--------------|
|---------------------------|-----------------------|
|------------0--------0-----|------------0------0---|
|--0------------------------|--0--------------------|
|---------------------------|-----------------------|

57
|-----5--------5--7------\-9--|-----9---------0-----9--|
|--------5--------------------|--------8---------------|
|-----------5-----------------|------------------------|
|---------------------5-------|------------0-----0-----|
|--5--------------------------|--0---------------------|
|-----------------------------|------------------------|

59
|------12-----------14p12------------12---|
|-----------12--------------12------------|
|-----------------------------------------|
|----------------0---------------0--------|
|--0--------------------------------------|
|-----------------------------------------|

60
|----12------------10-----10--|----9-----------7---------|
|-----------------------------|--------------------------|
|--------11-----9-------------|-------7-----5--------5p4-|
|------------0---------0------|----------0--------0------|
|-----------------------------|--------------------------|
|-0---------------------------|-0------------------------|

62
|-----5----------5------0--|-----0-----------0---4--5---|
|--------0-----------------|--------0-----1-------------|
|--------------------------|----------------------------|
|------------0-------0-----|-----------0---------0------|
|--0-----------------------|----------------------------|
|--------------------------|--0-------------------------|

64
|-------------5-------0---|-----0---------2p0------0--|
|-----0---3-------3-------|--------3------------3-----|
|-------------------------|---------------------------|
|---------0-------0-------|------------0--------0-----|
|--0----------------------|--0------------------------|
|-------------------------|---------------------------|

66
|-----5---------2---0--|-----2-----------2p0--------|
|--------0-------------|--------1-------------1-----|
|----------------------|--------------0-------------|
|------------0------0--|-----------2-------------2--|
|--0-------------------|--0-------------------------|
|----------------------|----------------------------|

68
|-----5---------2---0--|-----0--------2p0------0--|
|--------0-------------|--------3-----------3-----|
|----------------------|--------------------------|
|------------0------0--|-----------0--------0-----|
|--0-------------------|--0-----------------------|
|----------------------|--------------------------|

70
|----------------2---0---|-----0---------2p0------0--|
|-----7-\-1--------------|--------3------------3-----|
|------------------------|---------------------------|
|-------------0------0---|------------0--------0-----|
|------------------------|---------------------------|
|--0---------------------|--0------------------------|

72
|-----5---------2---0---|-----0---------2p0------0--|
|--------0--------------|--------3------------3-----|
|-----------------------|---------------------------|
|------------0------0---|------------0--------0-----|
|--0--------------------|---------------------------|
|-----------------------|--0------------------------|

74
|-----5---------2---0---|-----0---------2p0------0--|
|--------0--------------|--------3------------3-----|
|-----------------------|---------------------------|
|------------0------0---|------------0--------0-----|
|--0--------------------|---------------------------|
|-----------------------|--0------------------------|

76
|-----5---------2---0---|-----0-----0-----0-----0-|
|--------0--------------|--------3-----5-----7----|
|-----------------------|-------------------------|
|------------0------0---|-------------------------|
|--0--------------------|-------------------------|
|-----------------------|--0----------------------|

78
|----------------|
|----------------|
|----------------|
|----------------|
|---0------------|
|----------------|

James Calton, Sheffield, England, 2004.

________________________________________________________________________________
     
Добавлено: 30.06.2013
Другие материалы по этой песне:
  • Аккорды и текст

Страница создана 30.06.2013
http://primanota.ru/chillingworth-sonny/moe-uhane-chords.htm
Привет, Гость.
Предлагаем пройти революционный курс по гитаре.
Подарок от PrimaNota.Ru, забирай!