PrimaNota.ru - самый крупный в мире бесплатный архив песенных текстов, аккордов, табулатур и нот


Children Of Bodom - Tie My Rope - текст песни, таба, видео

Регистрация Запомнить меня
Войти через:  Facebook Google Twitter Vk Yandex Mail.ru

Children Of Bodom - Tie My Rope - текст песни, таба, видео

Печатать
Просмотров: 244
Уроки эстрадного вокала в Санкт-Петербурге
D|-----------------------|--------------------------------------------------|
A|-----------------------|--------------------------------------------------|
F|-----------------------|--------------------------------------------------|
C|-----------------------|--------------------------------------------------|
G|-----------------------|--------------------------------------------------|
C|0-2-3-2-0-2-5-3-2-2-3-2|--0-2-3-2-0-2-6-3-2-2-3---------------------------|

D|--------------------------------------------------------------------------|
A|--------------------------------------------------------------------------|
F|--------------------------------------------------------------------------|
C|---------------------------7-7-7---9--------------------------------------|
G|0-2-3-2-0-2-5-3-2-2-3-2----5-5-5---7--------------------------------------|
C|0-2-3-2-0-2-5-3-2-2-3-2---------------------------------------------------|

D|--------------------------------------------------------------------------|
A|--------------------------------------------------------------------------|
F|--------------------------------------------------------------------------|
C|---------------------------4-4-4---5--------------------------------------|
G|0-2-3-2-0-2-5-3-2-2-3-2----2-2-2---3--------------------------------------|
C|0-2-3-2-0-2-5-3-2-2-3-2---------------------------------------------------|

D|--------------------------------------------------------------------------|
A|--------------------------------------------------------------------------|
F|--------------------------------------------------------------------------|
C|---------------------------7-7-7---9--------------------------------------|
G|0-2-3-2-0-2-5-3-2-2-3-2----5-5-5---7--------------------------------------|
C|0-2-3-2-0-2-5-3-2-2-3-2---------------------------------------------------|

D|--------------------------------------------------------------------------|
A|--------------------------------------------------------------------------|
F|--------------------------------------------------------------------------|
C|---------------------------4444--555--777---------------------------------|
G|0-2-3-2-0-2-5-3-2-2-3-2----2222--333--555---------------------------------|
C|0-2-3-2-0-2-5-3-2-2-3-2---------------------------------------------------|


D|--------------------------------------------------------------------------|
A|--------------------------------------------------------------------------|
F|--------------------------------------------------------------------------|
C|---------------------------------------8----------------------------------|
G|-000-33-6---000-33-5--000-353--000000--6----------------------------------|
C|-000-33-6---000-33-5--000------000000-------------------------------------|

D|--------------------------------------------------------------------------|
A|--------------------------------------------------------------------------|
F|--------------------------------------------------------------------------|
C|----------------------------------------------------1212-1212-9-----------|
G|-000-33-6---000-33-5--000-353--000000----1212-1010------------------------|
C|-000-33-6---000-33-5--000------000000-------------------------------------|

D|--------------------------------------------------------------------------|
A|--------------------------------------------------------------------------|
F|--------------------------------------------------------------------------|
C|---------------------------------------8----------------------------------|
G|-000-33-6---000-33-5--000-353--000000--6----------------------------------|
C|-000-33-6---000-33-5--000------000000-------------------------------------|

D|--------------------------------------------------------------------------|
A|--------------------------------------------------------------------------|
F|--------------------------------------------------------------------------|
C|----------------------------------------------------1212-1212-9-----------|
G|-000-33-6---000-33-5--000-353--000000----1212-1010------------------------|
C|-000-33-6---000-33-5--000------000000-------------------------------------|

D|--------------------------------------------------------------------------|
A|--------------------------------------------------------------------------|
F|--------------------------------------------------------------------------|
C|---------------------------------------8----------------------------------|
G|-000-33-6---000-33-5--000-353--000000--6----------------------------------|
C|-000-33-6---000-33-5--000------000000-------------------------------------|

D|--------------------------------------------------------------------------|
A|--------------------------------------------------------------------------|
F|--------------------------------------------------------------------------|
C|----------------------------------------------------1212-1212-9-----------|
G|-000-33-6---000-33-5--000-353--000000----1212-1010------------------------|
C|-000-33-6---000-33-5--000------000000-------------------------------------|

D|--------------------------------------------------------------------------|
A|--------------------------------------------------------------------------|
F|--------------------------------------------------------------------------|
C|--------------------------------------------------------------------------|
G|0-0-2-2-3-2-2--7-55--33-55-33-55-33-5-7-----------------------------------|
C|0-0-2-2-3-2-2--7-55--33-55-33-55-33-5-7-----------------------------------|

D|--------------------------------------------------------------------------|
A|--------------------------------------------------------------------------|
F|--------------------------------------------------------------------------|
C|--------------------------------------------------------------------------|
G|0-0-2-2-3-2-2--7-55--33-55-33-55-33-5-7-----------------------------------|
C|0-0-2-2-3-2-2--7-55--33-55-33-55-33-5-7-----------------------------------|

D|--------------------------------------------------------------------------|
A|--------------------------------------------------------------------------|
F|--------------------------------------------------------------------------|
C|--------------------------------------------------------------------------|
G|0-0-2-2-3-2-2--7-55--33-55-33-55-33-5-7-----------------------------------|
C|0-0-2-2-3-2-2--7-55--33-55-33-55-33-5-7-----------------------------------|


D|--------------------------------------------------------------------------|
A|--------------------------------------------------------------------------|
F|--------------------------------------------------------------------------|
C|--------------------------------------------------------------------------|
G|0-0-2-2-3-2-2--7-55--33-55-33-55-33-5-7-----------------------------------|
C|0-0-2-2-3-2-2--7-55--33-55-33-55-33-5-7-----------------------------------|

D|--------------------------------|-----------------------------------------|
A|--------------------------------|-----------------------------------------|
F|--------------------------------|-----------------------------------------|
C|-----7---4----------------------|-------9---7-----------------------------|
G|2-2--5---2---4-2-4--4444--22---7|--2-2--7---5---2-0-2--2222--00---5-------|
C|2-2----------4-2-4--4444--22---7|--2-2----------2-0-2--2222--00---5-------|


D|---17-15-13-12----------------15-----|
A|15------------15-13--18--13-15--13-15|
F|-------------------------------------|
C|-------------------------------------|
G|-------------------------------------|
C|-------------------------------------|

D|-17-15-13-12---------17-15171717-----|
A|15-----------15-13--18----------1817-|
F|-------------------------------------|
C|-------------------------------------|
G|-------------------------------------|
C|-------------------------------------|

i dont know the solo yet but ill post it when i learn it


Добавлено: 21.07.2012
Другие материалы по этой песне:

Страница создана 03.03.2012
http://primanota.ru/children-of-bodom/tie-my-rope-chords.htm
Привет, Гость.
Предлагаем пройти революционный курс по гитаре.
Подарок от PrimaNota.Ru, забирай!