PrimaNota.ru - самый крупный в мире бесплатный архив песенных текстов, аккордов, табулатур и нот


Children Of Bodom - Living Dead Beat - текст песни, таба, бас-таба, видео

Регистрация Запомнить меня
Войти через:  Facebook Google Twitter Vk Yandex Mail.ru

Children Of Bodom - Living Dead Beat - текст песни, таба, бас-таба, видео

Печатать
Просмотров: 890
Уроки эстрадного вокала в Санкт-Петербурге
Авторы музыки: Alexi Laiho
Авторы текста: Alexi Laiho
Children of Bodom
Living Dead Beat

Gtr I (C G C F A D)
Gtr II (C G C F A D)

This is the breakdown section of the song. Sorry, it's all I got, but I'm sure it's
all 100% correct. Someone else has tabbed most of the rest of the song. Anyway, if
you're capable of playing it, especially that last run in the diminished scale,
chances are you can figure the rest of the song out yourself. And to anyone out there
who was thinking of passing this off as their own work… well, you can put it on other
websites but give me credit for it, I tabbed it. Enjoy! - COBfan  

 4/4
  Gtr I
  PM|     PM|     PM|     PM|       PM|     PM|     PM|     PM|    
  S S  E  S S  E  S S S S S S S S   S S  E  S S  E  S S S S S S S S
|---------------------------------|---------------------------------|
|---------------------------------|---------------------------------|
|---------------------5/7-----8\7-|---------------------5/7-----3/5-|
|---------------------5/7-----8\7-|---------------------5/7-----3/5-|
|---------------------3/5-----6\5-|---------------------3/5-----1/3-|
|-0-0-<5>-0-0-<5>-0-0-----0-0-----|-0-0-<5>-0-0-<5>-0-0-----0-0-----|
|
| Gtr II
|                 PM|     PM|                       PM|     PM|    
| H               S S S S S S S S   H               S S S S S S S S
|---------------------------------|---------------------------------|
|---------------------------------|---------------------------------|
|---------------------5/7-----8\7-|---------------------5/7-----3/5-|
|---------------------5/7-----8\7-|---------------------5/7-----3/5-|
|---------------------3/5-----6\5-|---------------------3/5-----1/3-|
|-----------------0-0-----0-0-----|-----------------0-0-----0-0-----|


    PM|     PM|     PM|     PM|       PM|     PM|     PM|     PM|    
    S S  E  S S  E  S S S S S S S S   S S  E  S S  E  S S S S S S S S
||----------------------------------|----------------------------------||
||o---------------------------------|---------------------------------o||
||----------------------5/7-----8\7-|---------------------5/7-----3/5--||
||----------------------5/7-----8\7-|---------------------5/7-----3/5--||
||o---------------------3/5-----6\5-|---------------------3/5-----1/3-o||
||--0-0-<5>-0-0-<5>-0-0-----0-0-----|-0-0-<5>-0-0-<5>-0-0-----0-0------||
|
|   PM|     PM|     PM|     PM|       PM|     PM|     PM|     PM|    
|   S S  E  S S  E  S S S S S S S S   S S  E  S S  E  S S S S S S S S
||----------------------------------|----------------------------------||
||o---------------------------------|---------------------------------o||
||----------------------5/7-----8\7-|---------------------5/7-----3/5--||
||----------------------5/7-----8\7-|---------------------5/7-----3/5--||
||o---------------------3/5-----6\5-|---------------------3/5-----1/3-o||
||--0-0-<5>-0-0-<5>-0-0-----0-0-----|-0-0-<5>-0-0-<5>-0-0-----0-0------||

  
  PM--|   PM--|   PM|     PM|       PM--|   PM--|   PM|     PM|
  S S S S S S S S S S S S S S S S   S S S S S S S S S S S S S S S S
|---------------------------------|---------------------------------|
|---------------------------------|---------------------------------|
|---------------------------------|---------------------------------|
|-------2-------2-----2h5-----0h2-|-------2-------2-----2p0-----5p2-|
|---------------------------------|---------------------------------|
|-2-2-2---2-2-2---2-2-----2-2-----|-2-2-2---2-2-2---2-2-----2-2-----|
|
| PM--|   PM--|   PM|     PM|       PM--|   PM--|   PM|     PM|
| S S S S S S S S S S S S S S S S   S S S S S S S S S S S S S S S S
|---------------------------------|---------------------------------|
|---------------------------------|---------------------------------|
|---------------------------------|---------------------------------|
|-------2-------2-----2h5-----0h2-|-------2-------2-----2p0-----5p2-|
|---------------------------------|---------------------------------|
|-2-2-2---2-2-2---2-2-----2-2-----|-2-2-2---2-2-2---2-2-----2-2-----|


  PM--|   PM--|   PM|     PM|       PM--|   PM--|   PM|     
  S S S S S S S S S S S S S S S S   S S S S S S S S S S S E S E 
|---------------------------------|-----------------------------|
|---------------------------------|-----------------------------|
|---------------------------------|---------------------5/7-5/7-|
|-------2-------2-----2h5-----0h2-|-------2-------2-----5/7-5/7-|
|---------------------------------|---------------------3/5-3/5-|
|-2-2-2---2-2-2---2-2-----2-2-----|-2-2-2---2-2-2---2-2---------|
|
| PM--|   PM--|   PM|     PM|       PM--|   PM--|   PM|     
| S S S S S S S S S S S S S S S S   S S S S S S S S S S S E S E 
|---------------------------------|-----------------------------|
|---------------------------------|-----------------------------|
|---------------------------------|---------------------5/7-5/7-|
|-------2-------2-----2h5-----0h2-|-------2-------2-----5/7-5/7-|
|---------------------------------|---------------------3/5-3/5-|
|-2-2-2---2-2-2---2-2-----2-2-----|-2-2-2---2-2-2---2-2---------|


   S  S  S  S  S  S  S  S  S  S  S  S  S  S  S  S 
|--------------------------------19----17-14----14-|
|--17-------15-17-------15-17----------------15----|
|--------------------------------------------------|
|-----14-14-------14-14-------14----14-------------|
|--------------------------------------------------|
|--------------------------------------------------|
|
|  PM-------------------------|        PM-|      
|  S  S  S  S  S  S  S  S  S  S  S  S  S  S  S  S   
|--------------------------------------------------|
|--------------------------------------------------|
|--------------------------------------------------|
|--------------------------------2-h5--------0-h2--|
|--------------------------------------------------|
|--2--2--2--2--2--2--2--2--2--2--------2--2--------|


   S  S  S  S  S  S  S  S  S  S  S  S  S  S  S  S 
|--------------------------------19----17-14----14-|
|--17-------15-17-------15-17----------------15----|
|--------------------------------------------------|
|-----14-14-------14-14-------14----14-------------|
|--------------------------------------------------|
|--------------------------------------------------|
|
|  PM-------------------------|        PM-|      
|  S  S  S  S  S  S  S  S  S  S  S  S  S  S  S  S   
|--------------------------------------------------|
|--------------------------------------------------|
|--------------------------------------------------|
|--------------------------------2-h5--------0-h2--|
|--------------------------------------------------|
|--2--2--2--2--2--2--2--2--2--2--------2--2--------|


   S  S  S  S  S  S  S  S  S  S  S  S  S  S  S  S
|-----------14-------------14-17----17-14-------14-|
|--15----------15----17-15-------17-------17-15----|
|-----16-14-------14-------------------------------|
|--------------------------------------------------|
|--------------------------------------------------|
|--------------------------------------------------|
|
|  PM-------------------------|        PM-|      
|  S  S  S  S  S  S  S  S  S  S  S  S  S  S  S  S   
|--------------------------------------------------|
|--------------------------------------------------|
|--------------------------------------------------|
|--------------------------------2-h4--------0-h2--|
|--------------------------------------------------|
|--0--0--0--0--0--0--0--0--0--0--------0--0--------|


   S  S  S  S  S  S  S  S  S  S  S  S  S  S  S  S
|--------------------------17----------14----------|
|--17-------15-17-------------19----------16-------|
|--------------------------------20-17-------17-14-|
|-----14-14-------14-14-14-------------------------|
|--------------------------------------------------|
|--------------------------------------------------|
|
|  PM-------------------------------------------|            
|  S  S  S  S  S  S  S  S  S  S  S  S  S  S  S  S   
|--------------------------------------------------|
|--------------------------------------------------|
|--------------------------------------------------|
|--------------------------------------------------|
|--------------------------9--9--9--9--7--7--7--7--|
|--2--2--2--2--2--2--2--2--------------------------|


   S  S  S  S  S  S  S  S  S  S  S  S  S  S  S  S 
|--------------------------------19----17-14----14-|
|--17-------15-17-------15-17----------------15----|
|--------------------------------------------------|
|-----14-14-------14-14-------14----14-------------|
|--------------------------------------------------|
|--------------------------------------------------|
|
|  PM-------------------------|        PM-|      
|  S  S  S  S  S  S  S  S  S  S  S  S  S  S  S  S   
|--------------------------------------------------|
|--------------------------------------------------|
|--------------------------------------------------|
|--------------------------------2-h5--------0-h2--|
|--------------------------------------------------|
|--2--2--2--2--2--2--2--2--2--2--------2--2--------|


   S  S  S  S  S  S  S  S  S  S  S  S  S  S  S  S 
|--------------------------------19----17-14----14-|
|--17-------15-17-------15-17----------------15----|
|--------------------------------------------------|
|-----14-14-------14-14-------14----14-------------|
|--------------------------------------------------|
|--------------------------------------------------|
|
|  PM-------------------------|        PM-|      
|  S  S  S  S  S  S  S  S  S  S  S  S  S  S  S  S   
|--------------------------------------------------|
|--------------------------------------------------|
|--------------------------------------------------|
|--------------------------------2-h5--------0-h2--|
|--------------------------------------------------|
|--2--2--2--2--2--2--2--2--2--2--------2--2--------|


   S  S  S  S  S  S  S  S  S  S  S  S  S  S  S  S
|-----------14-------------14-17----17-14-------14-|
|--15----------15----17-15-------17-------17-15----|
|-----16-14-------14-------------------------------|
|--------------------------------------------------|
|--------------------------------------------------|
|--------------------------------------------------|
|
|  PM-------------------------|        PM-|      
|  S  S  S  S  S  S  S  S  S  S  S  S  S  S  S  S   
|--------------------------------------------------|
|--------------------------------------------------|
|--------------------------------------------------|
|--------------------------------2-h4--------0-h2--|
|--------------------------------------------------|
|--0--0--0--0--0--0--0--0--0--0--------0--0--------|


  2/4
   S  S  S  S  S  S  S  S 
|--------------------------|
|--17-------15-17----------|
|--------------------------|
|-----14-14-------14-14-14-|
|--------------------------|
|--------------------------|
|
|  PM-------------------|            
|  S  S  S  S  S  S  S  S 
|--------------------------|
|--------------------------|
|--------------------------|
|--------------------------|
|--------------------------|
|--2--2--2--2--2--2--2--2--|


  4/4
                                             |--3--|
   S  S  S  S  S  S  S  S  S  S  S  S  S  S  S  S  S
|--17-14-------14-11-------11-8--------8-----------8-|
|--------16-13-------13-10-------10-7-----10----10---|
|--------------------------------------------11------|
|----------------------------------------------------|
|----------------------------------------------------|
|----------------------------------------------------|
|
|  PM---------------------------------------------|   
|  S  S  S  S  S  S  S  S  S  S  S  S  S  S  S    S   
|----------------------------------------------------|
|----------------------------------------------------|
|----------------------------------------------------|
|----------------------------------------------------|
|--2--2--2--2--2--2--2--2--2--2--2—-2-—2--2--2----2--|
|----------------------------------------------------|


   |--3--|  |--3--|  |--3--|  |--3--|  |--3--|  |--3--|  |--3--|  |--3--|
   S  S  S  S  S  S  S  S  S  S  S  S  S  S  S  S  S  S  S  S  S  S  S  S 
|--11-8--------8--11/14-11-------11-14/17-14-------14-17/20-17----------17-|
|--------10----------------13----------------16----------------19----19----|
|-----------11----------------14----------------17----------------20-------|
|--------------------------------------------------------------------------|
|--------------------------------------------------------------------------|
|--------------------------------------------------------------------------|
|
|  PM----------------------------------------------------------|   
|  S    S    S    S   S    S   S    S   S    S   S    S   S    S   S    S   
|--------------------------------------------------------------------------|
|--------------------------------------------------------------------------|
|--------------------------------------------------------------------------|
|--------------------------------------------------------------------------|
|--2----2----2----2---2----2---2----2---2----2---2----2---2----2---2----2--|
|---------------------------------------------------------------------------|
    
  2/4
    ~
    Q
|---20-----------|
|----------------|
|----------------|
|----------------|
|----------------|
|----------------|
|
|   ~
|   Q
|----------------|
|----------------|
|----------------|
|----------------|
|--[2]-----------|
|----------------|

Добавлено: 15.06.2012
Другие материалы по этой песне:

Страница создана 25.02.2012
http://primanota.ru/children-of-bodom/living-dead-beat-chords.htm
Привет, Гость.
Предлагаем пройти революционный курс по гитаре.
Подарок от PrimaNota.Ru, забирай!