PrimaNota.ru - самый крупный в мире бесплатный архив песенных текстов, аккордов, табулатур и нот


Children Collide - We Live In Fear - таба, видео

Регистрация Запомнить меня
Войти через:  Facebook Google Twitter Vk Yandex Mail.ru

Children Collide - We Live In Fear - таба, видео

Печатать
Просмотров: 172
Artist: Children Collide
Album: The Long Now
Song: We Live in Fear

                                         Paper,      Here, oh dear
|-----4----------|----------------------|-------------------------------|
|------4--4------|----------------------|-------------------------------|
|-------4--4-----|0--------------------0|------------9---------6--------|
|-----------5----|0--5666666656666666--0|--6---------9---------6--------|
|------------5---|---5666666656666666---|--6---------7---------4--------|
|----------------|---3444444434444444---|--4----------------------------|
                  |                       |__________________________| |
                  |                              Tremlo Picking        |
                  |____________________________________________________|
                                        Figure 1
 


We live in fear....
|--------------------------------|--------------------------------------|
|--------------------------------|--------------------------------------|
|--------------------------------|---------44--------------44-----------|
|-----------5666666656666666-----|-------66--66--66------66--66--66-----|
|-----------5666666656666666-----|-----66------66--6---66------66--66---|
|-----------3444444434444444-----|---44--------------44-----------------|


|-------------------------------|
|--------88---------------------|
|------99--99--99------9/-------|             Repear Figure 1
|----99------99--99----9/-------|
|--77------------------7/-------|
|-------------------------------|


|---------------------------------------------------------------------|
|---------------------------------------------------------------------|
|------4------44--------------------77--------------------------------|
|---6-----66-------6--466-----6--------7--9-10-10---7------77-----7---|
|---------------------------6--------------------------10------7------|
|---------------------------------------------------------------------|


|---------------------------------------------------------------------|
|-------10-10---------------------------------------------------------|
|------------9-10--10-10----------------------------------------------|
|------------------------9---10---10----12-12-------------------------|
|---------------------------------------------12-15-15--10-12-12-7-12-|
|---------------------------------------------------------------------|


Guitar Break, then Repeat Figure 1 twice.

This is the bass riff repeating the whole song:

|--------------------------------|
|-------------------------------0|       
|-------------------------------0|
|----3-4-4-4-444--3-4-4-4-444----|
Добавлено: 25.07.2012
Другие материалы по этой песне:
  • Аккорды и текст

Страница создана 25.07.2012
http://primanota.ru/children-collide/we-live-in-fear-chords.htm
Привет, Гость.
Предлагаем пройти революционный курс по гитаре.
Подарок от PrimaNota.Ru, забирай!