PrimaNota.ru - самый крупный в мире бесплатный архив песенных текстов, аккордов, табулатур и нот


Children Collide - Terrible Lizard - таба, видео

Регистрация Запомнить меня
Войти через:  Facebook Google Twitter Vk Yandex Mail.ru

Children Collide - Terrible Lizard - таба, видео

Печатать
Просмотров: 107
Уроки эстрадного вокала в Санкт-Петербурге
Didn't see any tabs for this anywhere and I got a few requests after my cover of 
this: http://www.youtube.com/watch?v=estTlF94tc0

Key:
tr = Tremolo Pick
h = Hammer-on
p = Pull-off
() = Ghost note/Optional
/ = Slide up
\ = Slide down

Standard Tuning



Main Riff | 1st Verse (Reasonably fast delay; should be long enough that a second 
note is heard straight after the one that you pick)
e|--------------------------------------|
B|--------------------------------------|
G|--------------------------------------|
D|---14-12h14p(12)----------------------|  x56 (Not joking)
A|-----------------14--12--10-----------|
E|----------------------------12--------|

Chorus (DISTORTION)
   (Em)           (Bm)                    (Am)          (Em)
e|--------------|------------------|-----|-------|-----|-----|
B|--------------|------------------|-----|-------|-----|-----|
G|---9-9-9-9tr--|---/16-16-16-16tr-|-21\-|-14tr--|-21\-|-9tr-|
D|--------------|------------------|-----|-------|-----|-----| x 1
A|---7-7-7-7tr--|---/14-14-14-14tr-|-19\-|-12tr--|-19\-|-7tr-|
E---------------|------------------|-----|-------|-----|-----|


2nd Verse
e|--------------------------------------|
B|--------------------------------------|
G|--------------------------------------|
D|---14-12h14p(12)----------------------|  x32 (Still Not joking)
A|-----------------14--12--10-----------|
E|----------------------------12--------|


Chorus   (Em)      (Bm)                    (Am)          (Em)
e|--------------|------------------|-----|-------|-----|-----|
B|--------------|------------------|-----|-------|-----|-----|
G|---9-9-9-9tr--|---/16-16-16-16tr-|-21\-|-14tr--|-21\-|-9tr-|
D|--------------|------------------|-----|-------|-----|-----| x 1 
A|---7-7-7-7tr--|---/14-14-14-14tr-|-19\-|-12tr--|-19\-|-7tr-|
E|--------------|------------------|-----|-------|-----|-----|


e|--------------|------------------|-----|-------|---------------------|
B|--------------|------------------|-----|-------|---------------------|
G|---9-9-9-9tr--|---/16-16-16-16tr-|-21\-|-14tr--|-21\9tr/21-21\9-9/21-|
D|--------------|------------------|-----|-------|---------------------| x 1 
A|---7-7-7-7tr--|---/14-14-14-14tr-|-19\-|-12tr--|-19\7tr/19-19\7-7/19-|
E|--------------|------------------|-----|-------|---------------------|

Breakdown   (Em)
e|--------------|
B|--------------|
G|--------------|
D|-2-2-2-2-2-2--| x2 
A|-2-2-2-2-2-2--|
E|-0-0-0-0-0-0--|      

e|--------------|
B|--------------|
G|-4-4/-16-(16)-|
D|--------------| x3
A|-2-2/-14-(14)-|
E|-0-0—-0---0---|

e|-------------------------------|
B|-------------------------------|
G|-4-4/--------------------------|
D|-------7-7-7-7-7-7-7-7-7-7-7-7-| x1
A|-2-2/--------------------------|
E|-0-0—--5-5-5-5-5-5-5-5-5-5-5-5-|

e|--------------|
B|--------------|
G|-9-9/-21-(21)-|
D|--------------| x3
A|-7-7/-19-(19)-|
E|-0-0—-0---0---|

e|--------------|------------------|-----|-------|---------------------|
B|--------------|------------------|-----|-------|---------------------|
G|---9-9-9-9tr--|---/16-16-16-16tr-|-21\-|-14tr--|-21\9tr/21-21\9-9/21-|
D|--------------|------------------|-----|-------|---------------------| x 1 
A|---7-7-7-7tr--|---/14-14-14-14tr-|-19\-|-12tr--|-19\7tr/19-19\7-7/19-|
E|--------------|------------------|-----|-------|---------------------|

Outro
e|--------------------------------------|
B|--------------------------------------|
G|--------------------------------------|
D|---14-12h14p(12)----------------------|  x5 (Slow down)
A|-----------------14--12--10-----------|
E|----------------------------12--------|


This is my second tab, hope you find it useful.
Добавлено: 26.09.2013
Другие материалы по этой песне:
  • Аккорды и текст

Страница создана 12.08.2013
http://primanota.ru/children-collide/terrible-lizard-chords.htm
Привет, Гость.
Предлагаем пройти революционный курс по гитаре.
Подарок от PrimaNota.Ru, забирай!