PrimaNota.ru - самый крупный в мире бесплатный архив песенных текстов, аккордов, табулатур и нот


Children Collide - My Eagle - таба, бас-таба, видео

Регистрация Запомнить меня
Войти через:  Facebook Google Twitter Vk Yandex Mail.ru

Children Collide - My Eagle - таба, бас-таба, видео

Печатать
Просмотров: 190
Children Collide - My Eagle
Tabbed by - notthemessiah

This is a great song of this Aussie bands new album, wasn't a tab up so I gave it a go.


Intro:

e	|-----------------------------------------------------------------|
B	|-----------------------------------------------------------------|
G	|--9-9-9-9-9-9----------------------------------------------------|
D	|---------------5-5-5-5-5-5--8-8-7-7-7-7-7-7--2-2-2-2-2-2-2-2-----|  x4
A	|--7-7-7-7-7-7----------------------------------------------------|
E	|---------------3-3-3-3-3-3--6-6-5-5-5-5-5-5--0-0-0-0-0-0-0-0-----|

Verse:
Hold -
e	|-----------|
B	|-----------|
G	|--9--------|
D	|-----------|
A	|--7--------|
E	|-----------|

Chorus: Listen to the song for the timing as it is slightly different to the intro chords.

e	|-----------------------------------------|
B	|-----------------------------------------|
G	|--9-9------------------------------------|
D	|--9-9--5-5--8-8--7-7-7--2-2-2-2-2-2------|  x4
A	|--7-7--5-5--8-8--7-7-7--2-2-2-2-2-2------|
E	|-------3-3--6-6--5-5-5--0-0-0-0-0-0------|


Post Chorus: Repeat Intro

Repeat Verse

Repeat Chorus

Solo: This is all tremolo picked so listen to the song for the exact timing, these are 
notes he plays.

e	|---------------------------------------------------------|
B	|---------------------------------------------------------|
G	|---------9---12-9-12---14-12-9-12----9-------------------|
D	|--9---12--------------------------12---9-----------------|
A	|-----------------------------------------12-10-12-10-7---|
E	|---------------------------------------------------------|


e	|----------------------------------------------|
B	|----------------------------------------------|
G	|---------------------16-14-12---9----9--------|
D	|-------------9-12-----------------12----------|
A	|-5-7---10-12----------------------------------|
E	|----------------------------------------------|

Bridge:

e	|---------------------|
B	|---------------------|
G	|--9-9--9-9--9-9------|
D	|---------------------|  All palm muted
A	|--7-7--7-7--7-7------|
E	|---------------------|

Repeat Chorus

Outro: Same as intro, but finish on -

e	|--------------------|
B	|--------------------|
G	|-------9--9--9------|
D	|--2-----------------|
A	|--------------------|
E	|--0-----------------|

Thanks.
Добавлено: 24.07.2012
Другие материалы по этой песне:
  • Аккорды и текст

Страница создана 10.05.2012
http://primanota.ru/children-collide/my-eagle-chords.htm
Привет, Гость.
Предлагаем пройти революционный курс по гитаре.
Подарок от PrimaNota.Ru, забирай!