PrimaNota.ru - самый крупный в мире бесплатный архив песенных текстов, аккордов, табулатур и нот


Children Collide - Frozen Armies - бас-таба, видео

Регистрация Запомнить меня
Войти через:  Facebook Google Twitter Vk Yandex Mail.ru

Children Collide - Frozen Armies - бас-таба, видео

Печатать
Просмотров: 140
Song:Frozen Armies
Artist: Children Collide
Album: We Three, Brave and True/Frozen Armies (Single Vinyl)
Year: long long ago

Intro Riff:

|----------------------------------------------------------------|
|----------------------------------------------------------------|
|----------------------------------------------------------------|
|---0-0-0-0----0-0-0-0----0-0-0-0-----0-0-0-0--------------------|


Main riff:

|----------------------------------------------------------------|
|--------0-0-6-7-------0-0-6-4-----------------------------------|
|---7-7----------7-7---------------------------------------------|
|----------------------------------------------------------------|

Chorus:
|----------------------------------------------------------------|
|----------------------------------------------------------------|
|-----77--55--11------77--55--13---------------------------------|
|--00-------------00---------------------------------------------|
Добавлено: 25.07.2012
Другие материалы по этой песне:
  • Аккорды и текст

Страница создана 25.07.2012
http://primanota.ru/children-collide/frozen-armies-chords.htm
Привет, Гость.
Предлагаем пройти революционный курс по гитаре.
Подарок от PrimaNota.Ru, забирай!