PrimaNota.ru - самый крупный в мире бесплатный архив песенных текстов, аккордов, табулатур и нот


Children Collide - Asleep On My Feet - таба, бас-таба, видео

Регистрация Запомнить меня
Войти через:  Facebook Google Twitter Vk Yandex Mail.ru

Children Collide - Asleep On My Feet - таба, бас-таба, видео

Печатать
Просмотров: 155
\= slide down neck
/= slide up neck
x= mute strings
hb= half bend note

Intro

He Uses a lot of Delay so Im not sure about the plucking but its easy enough to figure out

|--------------------------------------------------------|
|-------0------------0-----------------------------------|
|-----2------2-----2---2------2---3---3-2---2---3--2-----|
|---4-----4------4-------4--0---0---0-----0---0---0------| X1
|-2------------2-----------------------------------------|
|--------------------------------------------------------|

|--------------------------------------------------------|
|-------------0------------------------------------------|
|-------2---2----2-----------2---3---3-2---2---3--2------|
|---4-----4----4---4---4---0---0---0-----0---0---0-------| X5
|-2---2--------------2---2-------------------------------|
|--------------------------------------------------------|


Verse
|--------------------------------|       |-----------------------|
|--------------------------------|       |-----------------------|
|-4--4--x-4-x-4--4-4-3hb-3hb-3hb-|       |--3--------------------|
|-4--4--x-4-x-4--4-4-------------| X3 |--3-(X8)-3----------------|
|-2--2--x-2-x-2--2-2-------------|       |--1-----3-(X8)---------|
|--------------------------------|       |--------1--------------|

Lead Break
|------------------------------------------------------------|
|------------------------------------------------------------|
|------------------------------------------------------------|
|---/9-9-9-\---/12-12-12-12\---/9-9-9-\---/14-14-14-14\------|
|-2----------2---------------2---------2---------------------|
|------------------------------------------------------------|

|----------------------------------------------|
|----------------------------------------------|
|----------------------------------------------|
|---/9-9-9-\---/12-12-12-12\---8-(X8)----------|
|-2----------2-----------------------8-(X8)----|
|----------------------------------------------|


2nd Lead Break
|------------------------------------------------------------|
|------------------------------------------------------------|
|------------------------------------------------------------|
|---/9-9-9-\---/12-12-12-12\---/9-9-9-\---/12-12-12-12\------|
|-2----------2---------------2---------2---------------------|
|------------------------------------------------------------|

|----------------------------------------------|
|----------------------------------------------|
|----------------------------------------------|
|---/9-9-9-\---/14-14-14-14\---8-(X8)----------|
|-2----------2-----------------------8-(X8)----|
|----------------------------------------------|

Slow Break Down  (don't let any notes ring except the open A)
(listen to the song for rhythm)
|----------------------------------|
|----------------------------------|
|----9-----12-----16---------------|
|----7-(X7)-10-(X4)-14-(X4)--------|
|-0~-0-----0------0----------------|
|----------------------------------|

Outro
|-------------------------------------------------------------|
|-------------------------------------------------------------|
|-4b-4b-4b-4b---4-----3hb-3hb-3hb--3--------------------------|
|-4b-4b-4b-4b---4-(X8)--------------3-(X8)-3------------------|
|-2b-2b-2b-2b---2------------------1-----3-(X8)---------------|
|----------------------------------------1--------------------|

I think it ends on this with feedback
|------|
|------|
|-4----|
|-4----|
|-2----|
|------|
Добавлено: 05.06.2012
Другие материалы по этой песне:
  • Аккорды и текст

Страница создана 05.06.2012
http://primanota.ru/children-collide/asleep-on-my-feet-chords.htm
Привет, Гость.
Предлагаем пройти революционный курс по гитаре.
Подарок от PrimaNota.Ru, забирай!