PrimaNota.ru - самый крупный в мире бесплатный архив песенных текстов, аккордов, табулатур и нот


Children 18:3 - Well Never Say Goodbye - бас-таба, видео

Регистрация Запомнить меня
Войти через:  Facebook Google Twitter Vk Yandex Mail.ru

Children 18:3 - Well Never Say Goodbye - бас-таба, видео

Печатать
Просмотров: 133
Artist: Children 18:3 
        Song: Well Never Say Goodbye
        Intro 1
G|----------------------------------------------------------------|
D|---------------------------10~----------------------------------|
A|--777/888-55555555-777/888------777/888-55555555-777/888--------|
D|------------------------------------------------------------8~--|
        Intro 2

G|----------------------------------------------------------------|
D|---------------------------10~----------------------------------|
A|--777/888-55555555-777/888------777/888-55555555-777/888-3~5~---|
D|----------------------------------------------------------------|

        Verse
G|---------------------|
D|---------------------|x4
A|---------------------|
D|--33--10-8~--88-10-3~|

        Pre Chorus

G|-------|
D|-------|
A|--3(x8)|
D|-------|

        Chorus 1
G|--------------------------|
D|--------------------------|
A|--7-8-10-12-13--7-8-10-3-5|
D|--------------------------|
        Do INTRO 2
        Do verse
        Do pre chorus
        Do Chorus(2X)
        Do INTRO 2

        
        Bridge 1
G|------------------------------------------------------------|
D|------------------------------------------------------------|
A|------------------------------------------------------------|
D|--5555-8-10~/12~--5-55/8-3-3-3-5555-8-10/~12~-5-5-5-888-55-3~|
           
        PAUSE

        Bridge 2
G|--------------|
D|--------------|(x2)
A|--77/10-7/8~--|
D|--------------|


G|---------------------------|
D|---------------------------|
A|--77/10-7-15-17~---55555555|
D|---------------------------|



        Chorus 1
G|-----------------------------|
D|-----------------------------|
A|--7-10-12-14-15--9-10-12-5-7-|
D|-----------------------------|

        Outro            (Those Are 10's)
G|----------------------------------------------------------------------------|
D|---------------------------------12~----------------------------------------|
A|--999/101010-77777777-999/101010------999/101010-77777777-999/101010-5~7~---|
D|----------------------------------------------------------------------------|

/- Slide Up
\- Slide Down
~- Let Ring
Добавлено: 12.02.2016
Другие материалы по этой песне:
  • Аккорды и текст

Страница создана 12.02.2016
http://primanota.ru/children-183/well-never-say-goodbye-chords.htm
Привет, Гость.
Предлагаем пройти революционный курс по гитаре.
Подарок от PrimaNota.Ru, забирай!