PrimaNota.ru - самый крупный в мире бесплатный архив песенных текстов, аккордов, табулатур и нот


Children 18 3 - Moment To Moment - таба, видео

Регистрация Запомнить меня
Войти через:  Facebook Google Twitter Vk Yandex Mail.ru

Children 18 3 - Moment To Moment - таба, видео

Печатать
Просмотров: 100
E1-STANDARD
E2-DROP D


INTRO

Electric 2
(palm mute)
E|--------------------------------|
B|--------------------------------|
G|--------------------------------|
D|-7-10-12------------------------|
A|-7-10-12------------------10-12-|
D|-7-10-12----7-10-14-12-10-------|

VERSE

Electric 1

E|-------|
B|-------|
G|---5-7-|
D|-7-5-7-|
A|-7-3-5-|
E|-5-----|

Electric 2

E|---------|
B|---------|
G|---------|
D|-7-10-12-|
A|-7-10-12-|
D|-7-10-12-|

PRE-CHORUS

Electric 1

E|--------------|
B|--------------|
G|------------9-|
D|-3-5-7--3-5-9-|
A|-3-5-7--3-5-7-|
E|-1-3-5--1-3---|

CHORUS

Electric 1

E|-------------------------|
B|-------------------------|
G|---3------3--------3-5-7-|
D|-5-3-3--5-3-3-2--5-3-5-7-|
A|-5-1-3--5-1-3-2--5-1-3-5-|
E|-3---1--3---1-0--3-------|

Electric 2

E|---------------------------|
B|---------------------------|
G|---------------------------|
D|-5-8-3--5-8-3-2--5-8-10-12-|
A|-5-8-3--5-8-3-2--5-8-10-12-|
D|-5-8-3--5-8-3-2--5-8-10-12-|

VERSE

Electric 2
(palm mute)
E|---------------------|
B|---------------------|
G|---------------------|
D|---------------------|
A|---------------10-12-|
D|-7-10-14-12-10-------|

VERSE (part 2)

Electric 1

E|-------|
B|-------|
G|---5-7-|
D|-7-5-7-|
A|-7-3-5-|
E|-5-----|

Electric 2

E|---------|
B|---------|
G|---------|
D|-7-10-12-|
A|-7-10-12-|
D|-7-10-12-|


PRE-CHORUS

CHORUS

BRIDGE

Electric 1

E|---------|
B|---------|
G|-8---3-7-|
D|-8-5-3-7-| x2
A|-6-5-1-5-|
E|---3-----|

Electric 2

E|-----------|
B|-----------|
G|-----------|
D|-13-5-8-12-| x2
A|-13-5-8-12-|
D|-13-5-8-12-|

SOLO

Electric 1

E|-8h10p8------8h10p8----8h10p8-----------------------------------
B|--------11-8--------10--------------11-10-----------------------
G|------------------------------10-10-----------3-----3-5ph-3-5bb-
D|------------------------------------------5-5---5-5-------------
A|----------------------------------------------------------------
E|----------------------------------------------------------------

 ----------------|
 ----------------|
 -8-8-7/88-7/10b-|
 ----------------|
 ----------------|
 ----------------|

Electric 2

E|--------------------------------------|
B|--------------------------------------|
G|--------------------------------------|
D|-5-13-8-7--5-13-8-12--5-13-8-7--12-15-|
A|-5-13-8-7--5-13-8-12--5-13-8-7--12-15-|
D|-5-13-8-7--5-13-8-12--5-13-8-7--12-15-|

PRE-CHORUS (part 1)

Electric 1

E|----------------|
B|----------------|
G|-8-10----8-10-7-|
D|-8-10-5--8-10-7-|
A|-6-8--5--6-8--5-|
E|------3---------|

PRE-CHORUS (part 2)

Electric 1

E|--------------------|
B|--------------------|
G|---3-7-------3------|
D|-5-3-7--x2-5-3-3-x2-|
A|-5-1-5-----5-1-3----|
E|-3---------3---1----|

Electric 2

E|--------------------|
B|--------------------|
G|--------------------|
D|-5-8-12----5-8-3----|
A|-5-8-12-x2-5-8-3-x2-|
D|-5-8-12----5-8-3----|

CHORUS
Добавлено: 09.06.2013
Другие материалы по этой песне:
  • Аккорды и текст

Страница создана 09.06.2013
http://primanota.ru/children-18-3/moment-to-moment-chords.htm
Привет, Гость.
Предлагаем пройти революционный курс по гитаре.
Подарок от PrimaNota.Ru, забирай!